Acordes y tablaturas para guitarra

Acordes y Tablaturas
Usuario: Password:

Buscar:
Acordes y Tablaturas >> Letra A >> Acordes de Almafuerte >> Tu Eres Su Seguridad - Solo
Tablatura de Tu Eres Su Seguridad - Solo, Almafuerte

Tu Eres Su Seguridad - Solo

Almafuerte






solo:
|---------------------------------------------------------------
|------------------------------------------7-8p7----------------
|------------------------------------------------9p7-9p7-9-9----
|--------------9----------------9h10----------------------9-----
|------9-10-12---10-10-9-10-9--------12-------------------------
|10-12-----------------------12---------------------------------

|----------------------------------------7-12-7------------------------
|--------------------------------7-12-7---------7----------------------
|------------------------7-12-7----------------------------------------
|----------------7-12-7------------------------------------------------
|--------7-12-7--------------------------------------------------------
|7-12-7---------------------------------------------12-14-15-10-12-14-8

|-----------------------|
|-----------------------|
|-----------------------|
|-----------------------|
|---------------5-------|
|-8-12-10-3-2-3---3-2---|

Solo:(este solo es solo una ayuda, despues perfeccionenlo ustedes)
|---12--12--12--12--12--12--12-----------------------------------
|/15b-15b-15b-15b-15b-15b-15b-15b17---17-15-13-12-13-12---12-----
|------------------------------------------------------14--14-12-
|----------------------------------------------------------------
|----------------------------------------------------------------
|----------------------------------------------------------------

|-14h15p14-12----12-14---12-----------------------------------------------------|
|-------------15-------15--15-13-12---12----------------------------------------|
|-----------------------------------14--14-12-11-12-11-9-11-9-7-----------------|
|---------------------------------------------------------------10-9------------|
|--------------------------------------------------------------------14-12-14p12|
|-------------------------------------------------------------------------------|


|----------------------------------------------------------------17*--|
|----------------------------------------------12-13-15-17-19-20------|
|--------------------------------------12-14-15-----------------------|
|-----------------------------12-14-15--------------------------------|
|---------------------12-14-15----------------------------------------|
|-15-14-12-10/12-14-15------------------------------------------------|

T          T          T          T
..........................................
|1214151412-------------------------------/12-10-14-12-17-15-17-19-20b--17h20------|
|----------151312-------------------------------------------------------------/17--|
|----------------141211------------------------------------------------------------|
|----------------------12108-------------------------------------------------------|
|---------------------------12107--------------------------------------------------|
|--------------------------------12h14-(10)----------------------------------------|


|--------12h14p12---------------12h14h15-/17/17---|
|12h13h15---------15p13p12h13h15------------------|
|-------------------------------------------------|
|-------------------------------------------------|
|-------------------------------------------------|
|-------------------------------------------------|

|---------------------------------------------------------------------------------------|
|---------------------------------------------------------------------------------------|
|---------------------------------------------------------------------------------------|
|------------2-2-5-7-7-12-11-9-9-------------------2-2-5-7-7-12-11-9-9------------------|
|------5-----2-2-3-5-5-10-9--7-7-9-7---------5-----2-2-3-5-5-10-9--7-7-9-7--------5-----|
|3-2-3---3-2-0-0-----------------7-5---3-2-3---3-2-0-0-----------------7-5--3-2-3---3-2-|


para mi hermano walter, se lo dedici a el
departe de gaby...

Que te parecio? Calificalo con estrellas!!

Rating: 3.9/10 (29 votos)

Este fichero es trabajo propio de su transcriptor y representa su interpretación personal de la canción. El material contenido en esta página es para exclusivo uso privado, por lo que se prohibe su reproducción o retransmisión, así como su uso para fines comerciales.


Deja tus comentarios:

Letras de Almafuerte
Letras de canciones | Musica Independiente