Acordes y tablaturas para guitarra

Acordes y Tablaturas
Usuario: Password:

Buscar:
Acordes y Tablaturas >> Letra Z >> Acordes de Zoe >> Ultimos Días
Acordes de Ultimos Días, Zoe

Ultimos Días

Zoe






Intro: F* (C) x2

F*                          (C)
Hoy voy, hoy voy a pasarla bien
            F*                        (C)
Me voy a amplificar, me voy a desvanecer
   F*                                 (C)
Nada me detiene, nada que me pueda parar
    F*                                   (C)
Soy una frecuencia con un millón de megahertz

F*                          (C)
Hey Hope, vamos a confeccionar
        F*                       (C)
La telaraña de, de nuestra realidad
    F*                                   (C)
Hundirse en la arena, bajo la brisa del mar
    F*                               (C)
Volverse sonámbulo y no repetirse jamás

Coro:
B9           (C9)          B9
Un árbol de look cerebral
               (C9)            B9
Soñaba me enseñaba a respirar
              (C9)       D9
Una gamma de felicidad

B9         (C9)           B9
No tengas miedo de volar
      (C9)             B9
Nada te va a lastimar
       (C9)          D9
Planeador del alma

Solo:
   F*                           (C)
e|--------------------------------------------------------|
B|--------------------------------------------------------|
G|--0-2-0---------0-2-0---------0-2-0---------------------|
D|--------2-2-2-2-------2-2-2-2-------2-2-2-2--0-2-0-2-2--|
A|--------------------------------------------------------|
E|--------------------------------------------------------|
   (F)                           (C)
e|--------------------------------------------------------|
B|--0-1-0---------0-1-0-----------------------------------|
G|--------2-2-2-2-------2-2-2-2-0-2-0---------------------|
D|------------------------------------2-2-2-2--0-2-0-2-2--|
A|--------------------------------------------------------|
E|--------------------------------------------------------|

F*                        (C)
Hoy voy, hoy voy a crucificar
           F*                          (C)
Todas las mentiras que flotan en alta mar
           F*                                       (C)
Traigo estrella en el hombro y relámpagos salen de mí
F*                                  (C)
Y las hormigas corren aterradas ja ja ja

Coro:
B9           (C9)          B9
Un árbol de look cerebral
               (C9)            B9
Soñaba me enseñaba a respirar
              (C9)       D9
Una gamma de felicidad

B9         (C9)           B9
No tengas miedo de volar
      (C9)             B9
Nada te va a lastimar
       (C9)          D9
Planeador del alma

(D#)      D9       (Gm)
No los dejen entrar
        (F)          (Em)
No los dejen destruir
        (C9)        (Gm)
No los dejen dominar

(D#)      D9       (Gm)
No los dejen entrar
        (F)          (Em)
No los dejen destruir
        (C9)        (Gm)
No los dejen dominar

(D#)      D9       (Gm)
No los dejen entrar
        (F)          (Em)
No los dejen destruir
        (C9)        (Gm)
No los dejen dominar

(D#)      D9       (Gm)
No los dejen entrar
        (F)          (Em)
No los dejen destruir
        (C9)        (Gm)
No los dejen dominar

(D#) D9 (Gm) (F) (Em) (C9) (Gm)

     F*
e|---x-----|
B|---0-----|
G|---2-----|
D|---3-----|
A|---3-----|
E|---1-----|

     B9
e|---2-----|
B|---2-----|
G|---4-----|
D|---4-----|
A|---2-----|
E|---2-----|

     (C9)
e|---3-----|
B|---3-----|
G|---5-----|
D|---5-----|
A|---3-----|
E|---3-----|

     D9
e|---5-----|
B|---5-----|
G|---7-----|
D|---7-----|
A|---5-----|
E|---5-----|


Que te parecio? Calificalo con estrellas!!

Rating: 7.9/10 (95 votos)

Este fichero es trabajo propio de su transcriptor y representa su interpretación personal de la canción. El material contenido en esta página es para exclusivo uso privado, por lo que se prohibe su reproducción o retransmisión, así como su uso para fines comerciales.


Deja tus comentarios:
Letras de canciones | Musica Independiente