Acordes y tablaturas para guitarra

Acordes y Tablaturas
Usuario: Password:

Buscar:
Acordes y Tablaturas >> Letra D >> Acordes de Denisse De Kalaf >> SEÑORA SEÑORA
Tablatura de SEÑORA SEÑORA, Denisse De Kalaf

SEÑORA SEÑORA

Denisse De Kalaf






ESTA CANCÓN ESTA EN D (RE)SOLO CON EL ACORDE DE RE PUEDES TOCARLA

e-2-----1--------2-----0-------2-----1--------2-----0------
B-----3-----3--------3-----3-------3-----3--------3-----3--
G---2-----2---2----2-----2---2---2-----2---2----2-----2---2
D-0--------------0-------------0--------------0------------
A-------0--------------0-------------0--------------0------
E----------------------------------------------------------

LETRA (VA ARPEGIADA)

Re                   Fa#7               SIm SI7       
A ti que me diste tu vida, tu amor y tu espacio
MIm                     La7               Re      Lam  Re7
A ti que cargaste en tu vientre dolor y cansancio
Sol                   La7
A ti que peleaste con uñas y dientes
   Fa#7                     Sim
Valiente en tu casa y en cualquier lugar
Sol                   
A ti rosa fresca de abril
LA7
A ti mi fiel querubin

Re                 Fa#7                    Sim SI7    
A ti te dedico mis versos, mi ser, mis victorias
MIm                 La7             Re      Lam  Re7
A ti mis respetos Señora, Señora, Señora
Sol                    La7
A ti, mi guerrera invencible
Fa#7                  Sim
A ti, luchadora incansable
Sol                La7                Re        La7
A ti, mi amiga constante de todas las horas
RE                        Fa#7               Sim SI7  
Su nombre es un nombre comun, como las Margaritas
MIm                  La7                   Re     Lam   Re7
Siempre mi poca presencia constante en mi mente
Sol                     La7
Y para no hacer tanto alarde
Fa#7                Sim
Esa mujer de quien hablo
Sol                  La7
Es linda mi amiga, gaviota
                  Re           La7
Su nombre es: mi Madre

A QUI CAMBIA EL RITMO A BALADA RITMICA (TIPO ROCK)

Re                    Fa#7                Sim SI7   
A ti que me diste tu vida tu amor y tu espacio
MIm                        La7              Re        Lam    Re7
A ti que guardaste en tu vientre dolor y Cansancio
Sol                   La7
A ti que peleaste con uñas y dientes
Fa#7                       Sim
Valiente en tu casa y en cualquier lugar
Sol		       
A ti, rosa fresca de abril
La7
A ti, mi fiel querubin

Re                  Fa#7                  Sim SI7   
A ti te dedico mis versos, mi ser, mis victorias
MIm                 La7              Re     Lam  Re7
A ti mis respetos Señora, Señora, Señora
Sol                    La7
Y para no hacer tanto alarde
Fa#7                  Sim
De esa mujer de quien hablo
Sol                  La7
Es linda mi amiga, gaviota
                  Re
Su nombre es: mi Madre

TERMINAMOS CON EL ARPEGIO

e-2-----1--------2-----0-------2-----1--------2-----0-------
B-----3-----3--------3-----3-------3-----3--------3-----3---
G---2-----2---2----2-----2---2---2-----2---2----2-----2---2-
D-0--------------0-------------0--------------0-------------
A-------0--------------0-------------0--------------0-------
E-----------------------------------------------------------

e-1---1---1---1---1---1-------------2
B---------------------------------3--
G---2---2---2---2---2---2-------2----
D-0-------0-------0-----------0------
A-----0-------0-------0-----0--------
E-------------------------0----------

Que te parecio? Calificalo con estrellas!!

Rating: 6.8/10 (68 votos)

Este fichero es trabajo propio de su transcriptor y representa su interpretación personal de la canción. El material contenido en esta página es para exclusivo uso privado, por lo que se prohibe su reproducción o retransmisión, así como su uso para fines comerciales.


Comentario de zavuri
ESPERO QUE LES GUSTE PARA EL 10 DE MAYO
Deja tus comentarios:
Letras de canciones | Musica Independiente