Enviado por: Charliie
Agrandar Letra
Reducir Letra
Imprimir

Acordes:
½ tono
| +0 |
½ tono
||
Volver


Almafuerte, Se Vos

Intro:

     Am      G    D    Am      Am     G     F       D
E|-----------------2----0---------------------------2----|
B|--------1--------3----1-----------1---------------3----|
G|--2---2----0-----2----2-----2---2----4?-4/5--5----2----|
D|----2------0-----0----2-------2------5-----------------|
A|-----------2----------0--------------5-----------------|
E|-----------3-------------------------3-----------------|

Vamos che por que dejar
que tus sueños se desperdicien
si no sos vos triste será
si no sos vos será muy triste...

Puente: F G   F G Am

Estribillo:

Am      F
Por que falsear
Am          G
si ser uno es ganar
D           C     G     Am   F
por que engañarse y mentirse...
Am     F
se vos no mas
Am            G
que al mundo salvaras
D           C       G     Am
aunque muchos lo hagan dificil...

Intro: Am G D Am    Am G F D

Sigamoslo como hasta aca
prometiendome que lo entendiste
digamos fue, si algo anda mal
cumple sus sueños quien resiste...

Puente: F G   F G Am

Estribillo:

Am       F
Yo se diras
Am          G
muy duro es aguantar
D            C       G        Am    F
mas quien aguanta es el que existe...

Am      F
si aquel se va
Am              G
no llores ni mires atras
D           C         G     Am    F   Am   C   D
aunque muchos te lo hagan triste...

Min: 02:19
E||------------------10------|--10~---------------|--------------12--13--12--13--15--|
B||--------------10------13b-|--------------------|----------15----------------------|
G||--12b---------------------|--------------------|----12/14-------------------------|
D||--------------------------|--------------------|----------------------------------|
A||--------------------------|--------------------|----------------------------------|
E||--------------------------|--------------------|----------------------------------|

|--17~-------------17--19--|--20~-------------19-17-|------20-17-------------------------------------|
|--------------17----------|------------------------|--20--------20-17-20-17----17-------------------|
|--------------------------|------------------------|------------------------19----20-19-17----19----|
|--------------------------|------------------------|---------------------------------------19----19-|
|--------------------------|------------------------|------------------------------------------------|
|--------------------------|------------------------|------------------------------------------------|

|----------------------------------------|--------------------20r---|
|----------------------------------------|--------------------------|
|--17~-----19-17-19-17-------------------|--------------------------|
|----------------------19-17-------------|--------------------------|
|----------------------------19-17/15----|--15-17-15~---------------|
|-------------------------------------17-|--------------------------|
                                                                  Min: 02:38
|----------20r---20r---|--20~-----------------|--------------------------|
|----------------------|--------------15b-----|--15b-------15b-----17-15-|
|----------------------|----------------------|--------------------------|
|----------------------|----------------------|--------------------------|
|----------------------|----------------------|--------------------------|
|----------------------|----------------------|--------------------------|

|--------15----------------------------------------|--------------------------------------------------|
|--17-18----17-18-15-17-15-------------------------|--------------------------------------------------|
|--------------------------17-16-14-17-16-14----16-|--14-------14-------------------------------------|
|--------------------------------------------17----|-----17-14----17-14----17-14----------------------|
|--------------------------------------------------|--------------------17-------17-15-17-15----17-15-|
|--------------------------------------------------|-----------------------------------------17-------|

                                                  min: 02:45
|------------------------------------------------|--14-------14-------------------------------------|
|--------------------------------------------13~-|-----15-17----17-15-14-15-17----14----------------|
|--------------------------------------12-14-----|-----------------------------16----14-16-14-------|
|--------------------------------12-14-----------|--------------------------------------------17-16-|
|--12-15-12----------------12-15-----------------|--------------------------------------------------|
|-----------15-12/10/12-15-----------------------|--------------------------------------------------|

|--14-12-14-15-14-12----12-14----12----------------|--17-14-15-17-15-14----14-15-14-------------------|
|--------------------15-------15----15-13-12-------|--------------------17----------17-15-14----14-15-|
|--------------------------------------------14-12-|-----------------------------------------16-------|
|--------------------------------------------------|--------------------------------------------------|
|--------------------------------------------------|--------------------------------------------------|
|--------------------------------------------------|--------------------------------------------------|

|--------------------------------16--17--|--19~-------17--16----------|
|--14--------------------17~-19----------|--------------------17------|
|-----16-14----14-16-14~-----------------|------------------------16--|
|-----------16---------------------------|----------------------------|
|----------------------------------------|----------------------------|
|----------------------------------------|----------------------------|

|--------------------|--20~---------------|--19~-------20----19----|
|--19b---------------|--------------------|------------------------|
|--------------------|--------------------|------------------------|
|--------------------|--------------------|------------------------|
|--------------------|--------------------|------------------------|
|--------------------|--------------------|------------------------|

|--17~-------------------|------------------------|------------------------|
|----------------17--20--|--18~-----------15--18--|--17~-----------18--17--|
|------------------------|------------------------|------------------------|
|------------------------|------------------------|------------------------|
|------------------------|------------------------|------------------------|
|------------------------|------------------------|------------------------|

|--------------------------|--------------------------|------------------------|
|--15~---------------------|--------------------------|------------------------|
|--------------16--17--16--|--14~-----------14-16-17~-|--------16-17-19~-------|
|--------------------------|--------------------------|------------------------|
|--------------------------|--------------------------|------------------------|
|--------------------------|--------------------------|------------------------|

|--------------------------|------------------|------------------------|
|--------------------20b---|------------------|------------------------|
|--19r-----17--19----------|------------------|--14~-------------------|
|--------------------------|------------------|----------------14--17--|
|--------------------------|------------------|------------------------|
|--------------------------|------------------|------------------------|

|------------------------|------------------|
|------------------------|------------------|
|------------------------|------------------|
|--15~-----------12--15--|--14~-------------|
|------------------------|------------------|
|------------------------|------------------|

Se vos no mas
Que al mundo salvarás
por que engañarse y mentirse...

yo se diras
muy duro es aguantar
mas quien aguanta es el que existe...

Por que falsear
si ser uno es ganar
aunque muchos te lo hagan triste...

si aquel se va
no llores n mires atras
la vida busca instruirte...
Aviso: Este fichero es trabajo propio de su transcriptor y representa su interpretación personal de la canción. El material contenido en esta página es para exclusivo uso privado, por lo que se prohibe su reproducción o retransmisión, así como su uso para fines comerciales.

Califica esta canción


Comentarios en Facebook