Acordes y tablaturas para guitarra

Acordes y Tablaturas
Usuario: Password:

Buscar:
Acordes y Tablaturas >> Letra P >> Acordes de Pearl Jam >> Yellow Ledbetter
Tablatura de Yellow Ledbetter, Pearl Jam

Yellow Ledbetter

Pearl Jam

Transcriptor:
PPSLASHMEXICANCOPY
Letras de Canciones
Acordes para Guitarra





PZZZ EL INTRO SEGUN YO VA ASI
Y SI NO AVISENME A VER K PX


e|-----------------9----------------9p7---------7--9---7p5------|
B|-----------------9---------------------7------7--7---5--------|
G|------------9----11p9--------------------8----8--8---6----6---|
D|-----9------9-----------11\----------------9--9--9---7----7---|
A|-----9h11-----------------------------------------------------|
E|--0---------------------------5/7-----------------------------|

 |-----5h7--5---5h7p5-------------12/14---12p9------------------|
 |-----5---------------5----------12/14---12--------------------|
 |-----6------------------6----------------------11\------------|
 |-----7--------------------------------------------------------|
 |--------------------------------------------------------------|
 |----------------------------0---------------------------------|

 |-----------------9--------------------9p7--9--7-----9p7--9----|
 |-----------------9-------------------------7--7-----7----7----|
 |------------9----11--9-----------8-8-------------8------------|
 |-----9------9-----------11------------------------------------|
 |-----9h11-----------------------------------------------------|
 |--0---------------------------7-------------------------------|

 |--7p5--------5------------------12/19-------------------------|
 |--5-----5-----------5h7p5-------12/19-------------------------|
 |--6-----6h7-----7---6-----------------------------------------|
 |--------------------------------------------------------------|
 |--------------------------------------------------------------|
 |----------------------------0-----------12\0------------------|


Y EL SOLO TAMBIEN LO SAQUE ASI

e|--------------------------------------------------------------|
B|-----------------12------hold bend----------------------------|
G|----------9---9-------11b13-13-13b11p9h11vvvvvvv--------------|
D|----9h11------------------------------------------------------|
A|--------------------------------------------------------------|
E|--------------------------------------------------------------|

 |--------------------------------------------------------------|
 |--------------------------------------------------------------|
 |----9---------------------------------------------------------|
 |-------11--9--------------------------------------------------|
 |---------------9b10b9--7-----7--9--7vvv--7-----7-----9b11-----|
 |--------------------------9-----------------9-----9-----------|

 |-----------------9--------------------------------------------|
 |-------12b14b12-----12--9----hold bend------------------------|
 |---9-----------------------11b13--13b11--9-11wwwwwwww*--------|
 |--------------------------------------------------------------|
 |--------------------------------------------------------------|
 |--------------------------------------------------------------|

 *Tremolo with whammy bar

 |--------------------------------------------------------------|
 |----------------------12------12-14vvv--14-12-14-12-14-12-----|
 |----11--9------12/13------13----------------------------------|
 |-----------11-------------------------------------------------|
 |--------------------------------------------------------------|
 |--------------------------------------------------------------|

 |---15b16b15--12------12--14--12-12\--------9-----------9------|
 |-----------------14--------------------9-9---9---12b14---12---|
 |--------------------------------------------------------------|
 |--------------------------------------------------------------|
 |--------------------------------------------------------------|
 |--------------------------------------------------------------|

 |--------------------------------------------------------------|
 |---9----------------------------------------------------------|
 |------11-11p9p6--9vvvvvvvv---11--9------9--11--9-11b14b11-----|
 |------------------------------------11------------------------|
 |--------------------------------------------------------------|
 |--------------------------------------------------------------|

 |--------------------------------------------------------------|
 |-------------------------12-----14-12h14p12h14p12h14-etc.-12\-|
 |---9------9--11--9--\13------13-------------------------------|
 |------11------------------------------------------------------|
 |--------------------------------------------------------------|
 |--------------------------------------------------------------|

Que te parecio? Calificalo con estrellas!!

Rating: 7.8/10 (134 votos)

Este fichero es trabajo propio de su transcriptor y representa su interpretación personal de la canción. El material contenido en esta página es para exclusivo uso privado, por lo que se prohibe su reproducción o retransmisión, así como su uso para fines comerciales.


Comentario de PPSLASHMEXICANCOPY
PZZZ VA CHEKENLA
Deja tus comentarios:
Letras de canciones | Musica Independiente