Acordes y tablaturas para guitarra

Acordes y Tablaturas
Usuario: Password:

Buscar:
Acordes y Tablaturas >> Letra N >> Acordes de Naruto >> Sadness And Sorrow
Tablatura de Sadness And Sorrow, Naruto

Sadness And Sorrow

Naruto






esta es la cancion triste de naruto pero le e echo algunos canbios y omiti algunas partes espero que les guste



Sadness and Sorrow 
  
E|--------3--2--------|--------3--2-------------|
B|----------------3---|----------------0--------|
G|--------------------|-------------------------|
D|-----2--------------|-----2-------------------|
A|--------------------|-------------------------|
E|--0-----------------|--0----------------------|


E|--2--0-------0----0--3---|--5-----------|
B|--------0----3-----------|--------5-----|
G|-------------0-----------|--------5-----|
D|-------------2-----------|-----5--------|
A|-------------------------|--3-----------|
E|--0----------------------|--------------|


E|--3--------3--2--3--5-----|--7-----7---5--------2---|
B|--------3--------------3--|------------------3------|
G|-----2--------------------|-----7---------2---------|
D|--0-----------0-----------|--5---------0------------|
A|--------------------------|-------------------------|
E|--------------------------|-------------------------|

E|--2--0-------0----0--3--|--5----------|
B|--------0----3----------|--------5----|
G|-------------0----------|--------5----|
D|-------------2----------|-----5-------|
A|------------------------|--3----------|
E|--0---------------------|-------------|

E|--3--------3--2--5--------|--------3--2-------|
B|--------3-----------3---5-|--------------3----|
G|-----2--------------------|-------------------|
D|--0-----------0-----------|-----2-------------|
A|--------------------------|-------------------|
E|--------------------------|--0----------------|


E|--------3--2----0--2--3--|--5--7--0--3--2--------|
B|----------------0--------|--------0-----------3--|
G|-------------------------|-----------------2-----|
D|-----2-------------------|--------------0--------|
A|-------------------------|--3--------------------|
E|--0----------------------|-----------------------|

E|--0----------0------|--3--5--3--2-------7--|
B|-------0---------0--|--------------3-------|
G|--------------------|--------0-------------|
D|----2-----2---------|--------------0----7--|
A|--------------------|--3-------------------|
E|--0-----------------|----------------------|

E|--7-----------5-----2-----|--5--7--0--3-----2--------|
B|-----------0-----------3--|--------------------3-----|
G|--------0--------2--------|--------0--------------2--|
D|-----0--------0-----------|--------------0-----------|
A|--------------------------|--3-----------------------|
E|--3-----------------------|--------------------------|

Que te parecio? Calificalo con estrellas!!

Rating: 6.5/10 (47 votos)

Este fichero es trabajo propio de su transcriptor y representa su interpretación personal de la canción. El material contenido en esta página es para exclusivo uso privado, por lo que se prohibe su reproducción o retransmisión, así como su uso para fines comerciales.


Deja tus comentarios:
Letras de canciones | Musica Independiente