Enviado por:
llpendeyvizll

Reik, Noviembre Sin Ti

INTRO:

E.-1-0----------0----|-1-0----------0----|
B.-----3-1--1-3---3--|-----3-1--1-3---3--|
G.-------------------|-------------------|
D.-------------------|-------------------|
A.-------------------|-------------------|
E.-------------------|-------------------|

PARTE 1:

E.---0-0-0--------0--------------------|
B.----------1-3-3---3----1-1-1--3-1-0--|
G.-0-------------------0---------------|
D.-------------------------------------|
A.-------------------------------------|
E.-------------------------------------|

E.------------------------|
B.------------------------| REPITES
G.-0-2-2-2---0-0-0-----0--| TODA LA 
D.---------2-------3-2----| PARTE 1
A.------------------------|
E.------------------------|

PARTE 2:

E.-----0-1------0-1-0-------0-0-0-----0-0-0---0-1----|
B.-3-3-----3--3-------3-1-1-------3-1-------3-----3--|
G.---------------------------------------------------|
D.---------------------------------------------------|
A.---------------------------------------------------|
E.---------------------------------------------------|

E.---0-1-0-------0-0-0-----0-0-0----|
B.-3-------3-1-1-------3-1-------3--|
G.----------------------------------|
D.----------------------------------|
A.----------------------------------|
E.----------------------------------|

PARTE 3:

E.---0-0-0---------5-3------------------------|
B.---------1-3-3-3-------1-1-1-3-1-0----------|
G.-0-------------------0-------------0-2-0-0--|
D.--------------------------------------------|
A.--------------------------------------------|
E.--------------------------------------------|

E.---0-0-0---------5-3---------------------------------|
B.---------1-3-3-3-------1-1-1-3-1-0------------1------|
G.-0-------------------0-------------0-2-0-0-2----2-0--|
D.-----------------------------------------------------|
A.-----------------------------------------------------|
E.-----------------------------------------------------|
Aviso: Este fichero es trabajo propio de su transcriptor y representa su interpretación personal de la canción. El material contenido en esta página es para exclusivo uso privado, por lo que se prohibe su reproducción o retransmisión, así como su uso para fines comerciales.
comentario del colaborador: COMENTEN Y CUALKIER PREGUNTA. Gracias.

Califica esta canción


Comentarios en Facebook