Enviado por: Anonimo
Agrandar Letra
Reducir Letra
Imprimir

Acordes:
½ tono
| +0 |
½ tono
||
Volver





Benny ibarra, Cielo

 LES FALTO UN @HOTMAIL EN LOS DATOS DE MI MAIL
ESTA CANCION SE LA DEDICO A UNA CHAVA MUY ESPECIAL
PARA MI... SIEMPRE PIENZO EN ELLA, ESPERO K ALGUN DIA
SEPA K AHI ALGO PARA ELLA AKI

TODA LA CANCION LLEVA ESTE ARPEGEO EN LOS ACORDES..
EN LA PARTE DEL CORO CAMBIA UN POCO
INTRO...[x2] 
    G             C               D/Dsus
E---3------------------------------------------------
 -----------------3----------------------------------
 ---------------------------------0------------------
 ----0--0--0-------0-----0---0--------------3--------
 -----2--2-----------1-1----------------------2------
e------2-------------------0------2--2/3--2-----1----
            G    C           D
CIELO POR TU LUZ, POR ESA CARICIA
           G             C       D
YO SERIA CAPAZ... DE RENDIR, MI SER
             G   C                   D    
YA NO TIENE CASO, MIRAR HACIA OTRO LADO
           Em              C          G
TODO LO K ESPERO... LO ENCUENTRO EN TI
            G   C                D        
SIENTETE SEGURA, KE NO TE QUEPA DUDA
              G         C         D
CUENTA CON MI VIDA Y MI DEBOSION
             G   C             D  
VIVO PARA AMARTE, PARA MI ALEJARME
           Em           C       G
ES COMO QUEDAR, SIN RESPIRACION


*CORO* [Todo el coro es rasgeo exepto el ultino Sol]
                 Em   C             G
EL CIELO EN TU MIRADA, EN CADA MADRUGADA
             Em       C      D/Dsus
ES A DONDE PIERDO MI CONFUSION
                 Em    C                 G
Y CUANDO ESTAS AUSENTE, TE ABRAZO A MI MENTE
      Em  C     G
CIELO PARA PODER VIVIR
         Em       C    G
MI CIELO PARA SOBRE VIVIR

SE REPITE EL INTRO, PERO CON EL Em ARPEGEADO TMB
    G             C               D
E---3------------------------------------------------
 -----------------3----------------------------------
 ---------------------------------0------------------
 ----0--0--0-------0-----0---0--------------3--------
 -----2--2-----------1-1----------------------2------
e------2-------------------0------2--2/3--2-----1----
 
   Em           C            G
E-------------------------------- AKI TERNINA EL
 ----2--------------------------- ARPEGEO Y LE SIGEN
 ----2-----------2------------0-- TRES RASGEOS
 ------0---0--------0----0-------
 --------0------------2-2--------
e------------0---0---------0--2--

AHI UN PEQUEÑO SOLIDO DEL PIANO... LO SAQUE COMO REKINTO
E------------------|--------------|-----------|------------------
 ------------------|--------------|-----------|------------------
 ------------------|--------------|-----------|------------------
 ------------------|--------------|-----------|------------------
 ------------------|--------------|-----------|-------5-----3----
e5-7--5-5--3---5--3|-7--5-5-3-5-7-|-7-5-5-3-5-|-5-7-5---3-3---3-3

                 Em   C             G
EL CIELO EN TU MIRADA, EN CADA MADRUGADA
             Em       C      D/Dsus
ES A DONDE PIERDO MI CONFUSION
                 Em    C                 G
Y CUANDO ESTAS AUSENTE, TE ABRAZO A MI MENTE
      Em  C     G
CIELO PARA PODER VIVIR
         Em       C    G
MI CIELO PARA SOBRE VIVIR

Fuente original: LaCuerda
Colaborador original: Luis Felipe Aguirre Robles [luisbizkit3]
Aviso: Este fichero es trabajo propio de su transcriptor y representa su interpretación personal de la canción. El material contenido en esta página es para exclusivo uso privado, por lo que se prohibe su reproducción o retransmisión, así como su uso para fines comerciales.

Califica esta canción


Comentarios en Facebook