Enviado por: Pp12
Agrandar Letra
Reducir Letra
Imprimir

Acordes:
½ tono
| +0 |
½ tono
||
Volver

Otras Versiones de Winning Days:

The Vines, Winning Days

The Vines - Winning Days estos son los acordes espero q les gusten y dejen coentarios porfavor


F C
The winning days are gone
G F
Because I know just where I\'m seeing
F C G
Is giving as I know, I can\'t hear
F C
Cause underneath this goal
G F
I need to get around to find it
F C G
And when I wanna go, I can dream
F C
I\'ve been tryin all my time

Chorus:
Am
I\'m just seeing it right
Em E
Cause it could be the light that\'s over me
F G
So I just wanna let it be.

Solo:
E|-----------------------------------------------------
B|-/5-3------------------------------------------------
G|------5-5-4-5-/7-5-4-4-2-4-/7-5-4-4-2-4b5b4-2-2-0-2--
D|-----------------------------------------------------

E|-----------------------------------------------------
B|-/5-3------------------------------------------------
G|------5-5-4-5-/7-5-4-4-2-4-/7--5--5p4--4h5p4-2--0-0--
D|-----------------------------------------------------

E|-----------------------------------------------------
B|-----------------------------------------------------
G|-0-2-2-2-2--------2-2-2--------2-2-2--------2-2-2----
D|-----------5-5-5--------5-5-5--------5-5-5--------5--

E|-----------------------------------------------------
B|-/5-3------------------------------------------------
G|------5-5-4-5-/7-5-4-4-2-4-/7-5-4-4-2-4b5b4-2-2-0-2--
D|-----------------------------------------------------

Repeat Verse [with \"leave\" instead of \"dream\"]

Chorus:
Am
I\'m just seeing it right
E
Cause it could be the light that\'s over me
F G#
So I just wanna let it be.

Ending [it gets confusing here with all the voices]:
F C
Get up and go, I saw it can help yourself
F C
Get up don\'t halt and wait
Cause all the world is waiting I feel[Get up and go]
I singing life is good I can\'t wait [Get up don\'t halt and wait]
I\'ve been tryin
Aviso: Este fichero es trabajo propio de su transcriptor y representa su interpretación personal de la canción. El material contenido en esta página es para exclusivo uso privado, por lo que se prohibe su reproducción o retransmisión, así como su uso para fines comerciales.

Califica esta canción


Comentarios en Facebook