Acordes y tablaturas para guitarra

Acordes y Tablaturas
Usuario: Password:

Buscar:
Acordes y Tablaturas >> Letra I >> Acordes de Incubus >> Love Hurts
Tablatura de Love Hurts, Incubus

Love Hurts

Incubus






Love Hurts ? Incubus.-

INTRO.- 
     Em          Bm     D-Dsus2    C
e/----------/----------/-2-2-3-/-0-0-0-/
B/---0---0--/-----3----/-3-3-3-/-1-1-1-/
G/-----0----/-------4--/-2-2-2-/-0-0-0-/
D/-2--------/---4------/-x-x-x-/-x-x-x-/
A/----------/-2--------/-x-x-x-/-x-x-x-/
E/----------/----------/-x-x-x-/-x-x-x-/

     Em          Bm       Am        C
e/----------/----------/-0-0-0-/-0-0-0-1-/
B/---0---0--/-----3----/-1-1-1-/-1-1-1-1-/
G/-----0----/-------4--/-2-2-2-/-0-0-0-0-/
D/-2--------/---4------/-x-x-x-/-x-x-x-x-/
A/----------/-2--------/-x-x-x-/-x-x-x-x-/
E/----------/----------/-x-x-x-/-x-x-x-x-/

Em Bm                  D 
   tonight we drink to youth  
    C                   Em 
   and holding fast the truth  
   Bm                 D             C 
   don't want to lose what i had as a boy  
Em Bm                   D 
   my heart still has a beat  
   C                 Em 
   but love is now a feat  
   Bm              D          C 
   as common as a cold day in L.A.  
   Am 
   sometimes when I'm alone I wonder  
   C 
   is there a spell that I am under  
   Am                          C        D 
   keeping me from seeing the real thing  

			
Em    Bm 
love hurts  
D                    C 
but sometimes it's a good hurt  
Em                 Bm   Am  C 
and it feels like I'm alive  
Em    Bm 
love sings  
D                      C 
when it transcends the bad things  
Em               Bm  
have a heart and try me  
Am                    C 
cause without love I won't survive  



Em Bm                D 
   i'm fettered and abused  
   C                Em 
   stand naked and accused  
   Bm                D                  C 
   should I surface, this one man submarine  
Em Bm               D 
   I only want the truth  
   C                      Em 
   so tonight we drink to youth  
   Bm           D             C 
   I never lose what I had as a boy  
   Am 
   sometimes when I'm alone I wonder  
   C 
   is there a spell that I am under  
   Am                          C         D 
   keeping me from seeing the real thing 
 

			
Em    Bm 
love hurts  
D                    C 
but sometimes it's a good hurt  
Em                 Bm   Am  C 
and it feels like I'm alive  
Em    Bm 
love sings  
D                      C 
when it transcends the bad things  
Em               Bm  
have a heart and try me  
Am                    C 
cause without love I won't survive  
			


SOLO.-
e/--------------------------12----12-----12----12----12---/
B/---11-12--12-15-12-15--15----15----15-----15----15------/
G/-12--------------------------------------------------12-/
D/--------------------------------------------------------/
A/--------------------------------------------------------/
E/--------------------------------------------------------/

e/--------------------------12----12-----12s14--15-12------/
B/---11-12--12-15-12-15--15----15----15---------------15---/
G/-12---------------------------------------------------12-/
D/---------------------------------------------------------/
A/---------------------------------------------------------/
E/---------------------------------------------------------/

e/--------------------------------------------------------------/
B/--------------------------------------------------------------/
G/-12s9-9v-9s7-7s12-12s9-9v-9s7-7s12-12s4-4v-4s7-7v-7s9-9v-12---/
D/------------------------------------------------------------9-/
A/--------------------------------------------------------------/
E/--------------------------------------------------------------/


Em    Bm 
love hurts  
D                    C 
but sometimes it's a good hurt  
Em                 Bm   Am  C 
and it feels like I'm alive  
Em    Bm 
love sings  
D                      C 
when it transcends the bad things  
Em               Bm  
have a heart and try me  
Am                    C 
cause without love I won't survive  
			

Em   Bm     D         C 
love hurts, oh oh oh oh oh oh oh  
Em   Bm 
love hurts  
Am                   C 
cause without love I wont survive  
Em   Bm    D                C 
love hurts oh la la la la la la la la la 
Em   Bm 
love hurts 
Am                    C              Em 
cause without love i won't survive

Que te parecio? Calificalo con estrellas!!

Rating: 6.8/10 (93 votos)

Este fichero es trabajo propio de su transcriptor y representa su interpretación personal de la canción. El material contenido en esta página es para exclusivo uso privado, por lo que se prohibe su reproducción o retransmisión, así como su uso para fines comerciales.


Deja tus comentarios:
Letras de canciones | Musica Independiente