Acordes y tablaturas para guitarra

Acordes y Tablaturas
Usuario: Password:

Buscar:
Acordes y Tablaturas >> Letra D >> Acordes de Deep Purple >> Smoke On The Water
Bajo de Smoke On The Water, Deep Purple

Smoke On The Water

Deep Purple






Hola pues pasando por aqui y sta cancion sta muy muy chida y aqui les dejo el bajo sta muy muy facil pero aclaro no es el correcto pero se apega mucho al original bueno bye aqui se las dejo...

Intro...

G--------------------------------------------------
D--------------------------------------------------
A--------------------------------------------------
E------3---5---------3---5---5---0--3--5--5--3---0-
B---5-----------5----------------------------------

O puede ser...

G---------------------------------------------------------
D---------------------------------------------------------
A---------------------------------------------------------
E-----3---7---8-----3--7--8--8----3---7---8---8--7--3-----
B---------------------------------------------------------
De ambas maneras se escucha bien el chiste es dejar 2 tonos.

Despues se sigue asi...

G--------------------------------------------------
D------7-7-7-7-7-7-7-7--5-4-5----7-7-7-7-7-7-7-7---
A-------------------------------------------------- X otra vez
E--------------------------------------------------
B--------------------------------------------------

En donde dice: The Fire in the Skyyy el bajo es asi...

G-------------------------------------
D-----5--3----------------------------
A-------------4---2---5--3------------
E-------------------------------------
B-------------------------------------

Esto no es muy correcto pero loq se es q el bajo alli lleva la melodia de la voz y entra otra vez con el intro asi se repite en toda la rola bueno bye me despido espero y les agrade

Que te parecio? Calificalo con estrellas!!

Rating: 5.4/10 (94 votos)

Este fichero es trabajo propio de su transcriptor y representa su interpretación personal de la canción. El material contenido en esta página es para exclusivo uso privado, por lo que se prohibe su reproducción o retransmisión, así como su uso para fines comerciales.


Comentario de Molotov
SALUDOS A OXIDO BANDA A GEORGE,LINK Y WARIO je je
Deja tus comentarios:
Letras de canciones | Musica Independiente