Acordes y tablaturas para guitarra

Acordes y Tablaturas
Usuario: Password:

Buscar:
Acordes y Tablaturas >> Letra S >> Acordes de Slipknot >> The Blister Exists
Tablatura de The Blister Exists, Slipknot

The Blister Exists

Slipknot






Gtr I (B Gb B E Ab Db) - 'Jim'
Gtr II (B Gb B E Ab Db) - 'Mick'

 Intro
  Q=180
  Eb         D5              Eb         D5            Eb         D5
 4/4
  Gtrs I, II                 Gtr I
               PM|   PM|                  PM|   PM|                PM|   PM|
   E     +E  E E E E E E      E     +E  E E E E E E    E     +E  E E E E E E
|------------------------||-------------------------|------------------------|
|------------------------||o------------------------|------------------------|
|------------------------||-------------------------|------------------------|
|------------------------||-------------------------|------------------------|
|------------0-----0-----||o------------0-----0-----|------------0-----0-----|
|-13b14r(13)-0-0-0-0-0-0-||--13b14r(13)-0-0-0-0-0-0-|-13b14r(13)-0-0-0-0-0-0-|


  Eb         D5            Eb         D5
                           Gtrs I, II
               PM|   PM|                PM|   PM|
   E     +E  E E E E E E    E     +E  E E E E E E
|------------------------|-------------------------||
|------------------------|------------------------o||
|------------------------|-------------------------||
|------------------------|-------------------------||
|------------0-----0-----|------------0-----0-----o||
|-13b14r(13)-0-0-0-0-0-0-|-13b14r(13)-0-0-0-0-0-0--||


      Eb         D5
                   PM|   PM|
       E     +E  E E E E E E
|-||-------------------------|
|-||o------------------------|
|-||-------------------------|
|-||-------------------------|
|-||o------------0-----0-----|
|-||--13b14r(13)-0-0-0-0-0-0-|


                                                    1.
  Eb         D5            Eb         D5            Eb         D5
               PM|   PM|                PM|   PM|                PM|   PM|
   E     +E  E E E E E E    E     +E  E E E E E E    E     +E  E E E E E E
|------------------------|------------------------|-------------------------||
|------------------------|------------------------|------------------------o||
|------------------------|------------------------|-------------------------||
|------------------------|------------------------|-------------------------||
|------------0-----0-----|------------0-----0-----|------------0-----0-----o||
|-13b14r(13)-0-0-0-0-0-0-|-13b14r(13)-0-0-0-0-0-0-|-13b14r(13)-0-0-0-0-0-0--||


  2.
  Eb         D5
               PM|
   E     +E  E E E E Q    W
|-----------------------|------||
|-----------------------|------||
|-----------------------|------||
|-----------------------|------||
|------------0-----0----|------||
|-13b14r(13)-0-0-0-0----|------||


    D5        Eb5           D5        Eb5
    Gtr II
      PM|   PM                PM|   PM
    E E E E E S S S S S S   E E E E E E  E  E  8x
||------------------------|--------------------||
||o-----------------------|-------------------o||
||------------------------|--------------------||
||--0-----0---1-1-1-1-1-1-|-0-----0---1--1--1--||
||o-0-----0---1-1-1-1-1-1-|-0-----0---1--1--1-o||
||--0-0-0-0-0-1-1-1-1-1-1-|-0-0-0-0-0-1--1--1--||
|
|   Gtr I
|     PM|   PM                PM|   PM
|   E E E E E S S S S S S   E E E E E E  E  E  8x
||------------------------|--------------------||
||o-----------------------|-------------------o||
||------------------------|--------------------||
||--0-----0---1-1-1-1-1-1-|-0-----0------------||
||o-0-----0---1-1-1-1-1-1-|-0-----0-----------o||
||--0-0-0-0-0-1-1-1-1-1-1-|-0-0-0-0-0-0h13-13--||


   Pre-Verse
    D5    Eb5 F5F#F5  D5    Eb5 F5F#F5
    Gtrs I, II
      PM|   PM          PM|   PM
    E E E E E E E E   E E E E E E E E  4x
||------------------|------------------||
||o-----------------|-----------------o||
||------------------|------------------||
||--0-----1---3s4s3-|-0-----1---3s4s3--||
||o-0-----1---3s4s3-|-0-----1---3s4s3-o||
||--0-0-0-1-0-3s4s3-|-0-0-0-1-0-3s4s3--||


   Verse
    D5                  Eb
   4/4
    Gtr II
    S S S S S S S S S S  S  S  S  S  S  S
||----------------------------10-10-10-10-|
||o---------------------------------------|
||--8-8-8-8-8-8-7-7-7-7--7--7-------------|
||----------------------------------------|
||o---------------------------------------|
||----------------------------------------|
|
|   Gtr I
|       PM--|       PM-----------------|
|   E   E   E   E   E    S  S  S  S  S  S
||----------------------------------------|
||o---------------------------------------|
||----------------------------------------|
||--0-----------0-------------------------|
||o-0-----------0-------------------------|
||--0---0---0---0---0---13-13-13-13-13-13-|


  D5                            D
   S  S  S  S  S  S  S  S  S  S  S S  S  S  S  S
|-10-10-10-10-10-10-10-10-11-11-10-8--------------|
|------------------------------------11-10--8-----|
|---------------------------------------------10--|
|-------------------------------------------------|
|-------------------------------------------------|
|-------------------------------------------------|
|
|        PM---|            PM
|  E     E     E     E     E     E    E     E
|-------------------------------------------------|
|-------------------------------------------------|
|-------------------------------------------------|
|--0-----------------0---------------------13-----|
|--0-----------------0----------------------------|
|--0-----0-----0-----0-----0----12S==13-----------|


  D5                  Eb
  S S S S S S S S S S  S  S  S  S  S  S
|---------------------------10-10-10-10-|
|---------------------------------------|
|-8-8-8-8-8-8-7-7-7-7--7--7-------------|
|---------------------------------------|
|---------------------------------------|
|---------------------------------------|
|
|     PM--|       PM-----------------|
| E   E   E   E   E    S  S  S  S  S  S
|---------------------------------------|
|---------------------------------------|
|---------------------------------------|
|-0-----------0-------------------------|
|-0-----------0-------------------------|
|-0---0---0---0---0---13-13-13-13-13-13-|


  D5                       D
   S  S S S S S  S S  S  S  S S  S  S  S  S  4x
|-10-10------------8-11-11-10-8--------------||
|-----------7-7-10--------------11-10--8----o||
|-------7-8------------------------------10--||
|--------------------------------------------||
|-------------------------------------------o||
|--------------------------------------------||
|
|       PM--|         PM
|  E    E   E    E    E     E    E     E     4x
|--------------------------------------------||
|-------------------------------------------o||
|--------------------------------------------||
|--0-------------0--------------------13-----||
|--0-------------0--------------------------o||
|--0----0---0----0----0----12S==13-----------||


   Pre-Chorus
    D5    Eb5 F5F#F5  D5    Eb5 F5F#F5
    Gtrs I, II
      PM|   PM          PM|   PM
    E E E E E E E E   E E E E E E E E  4x
||------------------|------------------||
||o-----------------|-----------------o||
||------------------|------------------||
||--0-----1---3s4s3-|-0-----1---3s4s3--||
||o-0-----1---3s4s3-|-0-----1---3s4s3-o||
||--0-0-0-1-0-3s4s3-|-0-0-0-1-0-3s4s3--||


 Verse
  Eb           D
  Gtr II
  S S S S S  S S S S S S S  S  S  S  S
|--------------------------10-10-10-10-|
|--------------------------------------|
|-8-8-8-8-8--8-7-7-7-7-7-7-------------|
|--------------------------------------|
|--------------------------------------|
|--------------------------------------|
|
| Gtr I
| E   E   H.
|--------------------------------------|
|--------------------------------------|
|--------------------------------------|
|-0------------------------------------|
|-0------------------------------------|
|-0------------------------------------|


   S  S  S  S  S  S  S  S  S  S  S S  S  S S  S
|-10-10-10-10-10-10-10-10-11-11-10-8------------|
|------------------------------------11-10-8----|
|--------------------------------------------10-|
|-----------------------------------------------|
|-----------------------------------------------|
|-----------------------------------------------|
|
|  W
|-----------------------------------------------|
|-----------------------------------------------|
|-----------------------------------------------|
|-----------------------------------------------|
|-----------------------------------------------|
|-----------------------------------------------|


  Eb          D
                                         TP
  S S S S S S S S S S S S  S  S  S  S    W
|-------------------------10-10-10-10-|-10b12--------------||
|-------------------------------------|--------------------||
|-8-8-8-8-8-8-7-7-7-7-7-7-------------|--------------------||
|-------------------------------------|--------------------||
|-------------------------------------|--------------------||
|-------------------------------------|--------------------||
|
| E   E   Q       H                      E    E E E  H
|-------------------------------------|--------------------||
|-------------------------------------|--------------------||
|-------------------------------------|--------------------||
|-0---0-------------------------------|--0----0-0----------||
|-0---0-------------------------------|--0----0-0---12\----||
|-0---0-------------------------------|--0----0-0---12\----||


    D5        Eb5           D5        Eb5
    Gtrs I, II
      PM|   PM                PM|   PM
    E E E E E S S S S S S   E E E E E E E E  4x
||------------------------|------------------||
||o-----------------------|-----------------o||
||------------------------|------------------||
||--0-----0---1-1-1-1-1-1-|-0-----0---1-1-1--||
||o-0-----0---1-1-1-1-1-1-|-0-----0---1-1-1-o||
||--0-0-0-0-0-1-1-1-1-1-1-|-0-0-0-0-0-1-1-1--||


  D5                  Eb5
  Gtr II
  S S S S S S S S S S S S  S  S  S  S
|-------------------------10-10-10-10-|
|-------------------------------------|
|-8-8-8-8-8-8-7-7-7-7-7-7-------------|
|-------------------------------------|
|-------------------------------------|
|-------------------------------------|
|
| Gtr I
|     PM--|       PM
| E   E   E   E   E   S S  S  S  S  S
|-------------------------------------|
|-------------------------------------|
|-------------------------------------|
|-0-----------0-------1-1--1--1--1--1-|
|-0-----------0-------1-1--1--1--1--1-|
|-0---0---0---0---0---1-1--1--1--1--1-|


  D5                            Eb5
   S  S  S  S  S  S  S  S  S  S  S S  S  S S  S
|-10-10-10-10-10-10-10-10-11-11-10-8------------|
|------------------------------------11-10-8----|
|--------------------------------------------10-|
|-----------------------------------------------|
|-----------------------------------------------|
|-----------------------------------------------|
|
|        PM---|            PM
|  E     E     E     E     E     E    E    E
|-----------------------------------------------|
|-----------------------------------------------|
|-----------------------------------------------|
|--0-----------------0-----------1----1----1----|
|--0-----------------0-----------1----1----1----|
|--0-----0-----0-----0-----0-----1----1----1----|


  D5                  Eb5               D5            Eb5
                                         TP
  S S S S S S S S S S S S  S  S  S  S    W
|-------------------------10-10-10-10-|-10b12---------------||
|-------------------------------------|---------------------||
|-8-8-8-8-8-8-7-7-7-7-7-7-------------|---------------------||
|-------------------------------------|---------------------||
|-------------------------------------|---------------------||
|-------------------------------------|---------------------||
|
|     PM--|       PM                          PM|   PM
| E   E   E   E   E   S S  S  S  S  S    E    E E E E E E E
|-------------------------------------|---------------------||
|-------------------------------------|---------------------||
|-------------------------------------|---------------------||
|-0-----------0-------1-1--1--1--1--1-|--0--------0---1-1-1-||
|-0-----------0-------1-1--1--1--1--1-|--0--------0---1-1-1-||
|-0---0---0---0---0---1-1--1--1--1--1-|--0----0-0-0-0-1-1-1-||


   Pre-Chorus
    D5    Eb5 F5F#F5  D5    Eb5 F5F#F5
    Gtrs I, II
      PM|   PM          PM|   PM
    E E E E E E E E   E E E E E E E E
||------------------|------------------||
||o-----------------|-----------------o||
||------------------|------------------||
||--0-----1---3s4s3-|-0-----1---3s4s3--||
||o-0-----1---3s4s3-|-0-----1---3s4s3-o||
||--0-0-0-1-0-3s4s3-|-0-0-0-1-0-3s4s3--||


  D5     Eb5 F5F#F5  D5     Eb5 F5F#F5
  Gtr II
     PM|   PM           PM|   PM
   E E E E E E E E    E E E E E E E E
|------------------|------------------|
|------------------|------------------|
|------------------|------------------|
|--0-----1---3s4s3-|--0-----1---3s4s3-|
|--0-----1---3s4s3-|--0-----1---3s4s3-|
|--0-0-0-1-0-3s4s3-|--0-0-0-1-0-3s4s3-|
|
| Gtr I
|  W                  W
|------------------|------------------|
|------------------|------------------|
|-14---------------|-12---------------|
|------------------|------------------|
|-12---------------|-10---------------|
|------------------|------------------|


  D5    Eb5 F5F#F5  D5    Eb5 F5F#F5
    PM|   PM          PM|   PM
  E E E E E E E E   E E E E E E E E
|-----------------|-----------------|
|-----------------|-----------------|
|-----------------|-----------------|
|-0-----1---3s4s3-|-0-----1---3s4s3-|
|-0-----1---3s4s3-|-0-----1---3s4s3-|
|-0-0-0-1-0-3s4s3-|-0-0-0-1-0-3s4s3-|
|
| W                 W
|-----------------|-----------------|
|-----------------|-----------------|
|-5---------------|-7---------------|
|-----------------|-----------------|
|-3---------------|-5---------------|
|-----------------|-----------------|


   Chorus - Half Time
    Q=90
    E5F5D5    G#G5G#G5D5F5F5F5G5  E5F5D5    G#G5G#G5D5F5F5F5G5
    Gtrs I, II
                        ~                             ~
    E S E +S  S S S S S E S S S   E S E +S  S S S S S E S S S
||------------------------------|------------------------------||
||o-----------------------------|-----------------------------o||
||------------------------------|------------------------------||
||--2-3-0-(0)-------------------|-2-3-0-(0)--------------------||
||o-2-3-0-(0)-6-5-6-5-0-----3-5-|-2-3-0-(0)-6-5-6-5-0-----3-5-o||
||--2-3-0-(0)-6-5-6-5-0-3-3-3-5-|-2-3-0-(0)-6-5-6-5-0-3-3-3-5--||


    F5D5    G#G5G#G5D5F5F5F5G5    E5F5D5    G#G5G#G5D5F5F5F5G5
                      ~                               ~
  E S E +S  S S S S S E S S S     E S E +S  S S S S S E S S S  3x
|-----------------------------||-------------------------------||
|-----------------------------||o-----------------------------o||
|-----------------------------||-------------------------------||
|---3-0-(0)-------------------||--2-3-0-(0)--------------------||
|---3-0-(0)-6-5-6-5-0-----3-5-||o-2-3-0-(0)-6-5-6-5-0-----3-5-o||
|---3-0-(0)-6-5-6-5-0-3-3-3-5-||--2-3-0-(0)-6-5-6-5-0-3-3-3-5--||


 Interlude
  Eb5D5
  Q  S E. H      Wx7
|--------------|--------|
|--------------|--------|
|--------------|--------|
|-1--0---------|--------|
|-1--0---------|--------|
|-1--0---------|--------|


    Eb5   D5                                       Eb5
    Gtr II
                 PM----------------|             PM
                 |-3-|   |-3-| |-3-|
    Q   S S H    S S S   S S S S S S e S S S S S S Q   4x
||---------------------|-------------------------------||
||o--------------------|------------------------------o||
||---------------------|---------------------------8---||
||--1---0--------------|-------------------------------||
||o-1---0--------------|---------------------------6--o||
||--1---0--------0-0-1-|-3-5-6-3-5-6-0-0-0-3-0---0-----||
|
|   Gtr I
|                PM------------------------------|
|                |-3-|   |-3-| |-3-|
|   Q   S S H    S S S   S S S S S S e S S S S S S Q   4x
||---------------------|-------------------------------||
||o--------------------|------------------------------o||
||---------------------|-------------------------------||
||--1/--0--------------|---------------------------8---||
||o-1/--0--------------|---------------------------6--o||
||--1/--0--------0-0-1-|-3-5-6-3-5-6-0-0-0-3-0-0-0-----||


    Eb5              D5
    Gtr II
    T  T T T T T T T T T T T  T  T  T  T  T  T  T  T  T  T  T  T  T  T  T T  T  T   T    T
||---------------------------10-10-10-10-10-10-10-10-10-10-10-10-11-11-10-8-----------------|
||o-------------------------------------------------------------------------11-10---8-------|
||--8--8-8-8-8-8-7-7-7-7-7-7------------------------------------------------------------10--|
||------------------------------------------------------------------------------------------|
||o-----------------------------------------------------------------------------------------|
||------------------------------------------------------------------------------------------|
|
|   Gtr I
|                                                                            PM-------|
|                                                                            |---3----|
|   Q                S   S    H                                              S    S   S
||------------------------------------------------------------------------------------------|
||o-----------------------------------------------------------------------------------------|
||------------------------------------------------------------------------------------------|
||--1/---------------0----------------------------------------------------------------------|
||o-1/---------------0----------------------------------------------------------------------|
||--1/---------------0-------------------------------------------------------0----0---1-----|


                                                                 C5
  T T   T   T T T   T   T T T T T  T  T  T  T  T  T T T T T  T T  T  T  T T  T  T T  T
|---------------------------------10-10-10-10-10-10------------8-11-11-10-8------------|
|-------------------------------------------------------7-7-10--------------11-10-8----|
|-8-8---8---8-8-8---7---7-7-7-7-7-------------------7-8-----------------------------10-|
|--------------------------------------------------------------------------------------|
|--------------------------------------------------------------------------------------|
|--------------------------------------------------------------------------------------|
|
| PM--------------------------------------------------------|
| |---3---|   |---3---|
| S   S   S   S   S   S   e        S     S     S    S   S    S    Q
|--------------------------------------------------------------------------------------|
|--------------------------------------------------------------------------------------|
|--------------------------------------------------------------------------------------|
|-----------------------------------------------------------------8--------------------|
|-----------------------------------------------------------------6--------------------|
|-3---5---6---3---5---6---0--------0-----0-----3----0---0----0-------------------------|


  Eb5              D5
  T  T T T T T T T T T T T  T  T  T  T  T  T  T  T  T  T  T  T  T  T  T T  T  T   T    T
|--------------------------10-10-10-10-10-10-10-10-10-10-10-10-11-11-10-8----------------|
|-------------------------------------------------------------------------11-10---8------|
|-8--8-8-8-8-8-7-7-7-7-7-7------------------------------------------------------------10-|
|----------------------------------------------------------------------------------------|
|----------------------------------------------------------------------------------------|
|----------------------------------------------------------------------------------------|
|
|                                                                          PM-------|
|                                                                          |---3----|
| Q                S   S    H                                              S    S   S
|----------------------------------------------------------------------------------------|
|----------------------------------------------------------------------------------------|
|----------------------------------------------------------------------------------------|
|-1/---------------0---------------------------------------------------------------------|
|-1/---------------0---------------------------------------------------------------------|
|-1/---------------0-------------------------------------------------------0----0---1----|


  1.
                                                                 Eb5
  T T   T   T T T   T   T T T T T  T  T  T  T  T  T T T T T  T T  T  T  T T  T  T T  T
|---------------------------------10-10-10-10-10-10------------8-11-11-10-8-------------||
|-------------------------------------------------------7-7-10--------------11-10-8----o||
|-8-8---8---8-8-8---7---7-7-7-7-7-------------------7-8-----------------------------10--||
|---------------------------------------------------------------------------------------||
|--------------------------------------------------------------------------------------o||
|---------------------------------------------------------------------------------------||
|
| PM--------------------------------------------------------|
| |---3---|   |---3---|
| S   S   S   S   S   S   e        S     S     S    S   S    S    Q
|---------------------------------------------------------------------------------------||
|--------------------------------------------------------------------------------------o||
|---------------------------------------------------------------------------------------||
|-----------------------------------------------------------------8---------------------||
|-----------------------------------------------------------------6--------------------o||
|-3---5---6---3---5---6---0--------0-----0-----3----0---0----0--------------------------||


  2.
                                                          Eb5
                                               TP
  T T   T   T T T   T   T T T T T  T  T  T  T  H
|---------------------------------10-10-10-10-10b12----------||
|------------------------------------------------------------||
|-8-8---8---8-8-8---7---7-7-7-7-7----------------------------||
|------------------------------------------------------------||
|------------------------------------------------------------||
|------------------------------------------------------------||
|
| PM------------------|            PM---|             PM|
| |---3---|   |---3---|
| S   S   S   S   S   S   e        S     S     S    S S S Q
|------------------------------------------------------------||
|------------------------------------------------------------||
|------------------------------------------------------------||
|---------------------------------------------------------8--||
|---------------------------------------------------------6--||
|-3---5---6---3---5---6---0--------0-----0-----3----0-0-0----||


   Pre Chorus - Double Time
    Q=180
    D5    Eb5 F5F#F5  D5    Eb5 F5F#F5
      PM|   PM          PM|   PM
    E E E E E E E E   E E E E E E E E  4x
||------------------|------------------||
||o-----------------|-----------------o||
||------------------|------------------||
||--0-----1---3s4s3-|-0-----1---3s4s3--||
||o-0-----1---3s4s3-|-0-----1---3s4s3-o||
||--0-0-0-1-0-3s4s3-|-0-0-0-1-0-3s4s3--||


    B5     C5  D5D#D5  B5     C5  D5D#D5
    Gtr II
       PM|   PM           PM|   PM
     E E E E E E E E    E E E E E E E E
||-------------------|------------------|
||o------------------|------------------|
||-------------------|------------------|
||---0-----1---3s4s3-|--0-----1---3s4s3-|
||o--0-----1---3s4s3-|--0-----1---3s4s3-|
||---0-0-0-1-0-3s4s3-|--0-0-0-1-0-3s4s3-|
|
|   Gtr I
|    W                  W
||-------------------|------------------|
||o------------------|------------------|
||--14---------------|-12---------------|
||-------------------|------------------|
||o-12---------------|-10---------------|
||-------------------|------------------|


  D5    Eb5 F5F#F5  D5    Eb5 F5F#F5
    PM|   PM          PM|   PM
  E E E E E E E E   E E E E E E E E
|-----------------|------------------||
|-----------------|-----------------o||
|-----------------|------------------||
|-0-----1---3s4s3-|-0-----1---3s4s3--||
|-0-----1---3s4s3-|-0-----1---3s4s3-o||
|-0-0-0-1-0-3s4s3-|-0-0-0-1-0-3s4s3--||
|
| W                 W
|-----------------|------------------||
|-----------------|-----------------o||
|-5---------------|-7----------------||
|-----------------|------------------||
|-3---------------|-5---------------o||
|-----------------|------------------||


   Chorus - Half Time
    Q=90
    E5F5D5    G#G5G#G5D5F5D5F5G5  E5F5D5    G#G5G#G5D5F5D5F5G5
    Gtrs I, II
                        ~                             ~
    E S E +S  S S S S S E S S S   E S E +S  S S S S S E S S S
||------------------------------|------------------------------||
||o-----------------------------|-----------------------------o||
||------------------------------|------------------------------||
||--2-3-0-(0)-------------------|-2-3-0-(0)--------------------||
||o-2-3-0-(0)-6-5-6-5-0-----3-5-|-2-3-0-(0)-6-5-6-5-0-----3-5-o||
||--2-3-0-(0)-6-5-6-5-0-3-3-3-5-|-2-3-0-(0)-6-5-6-5-0-3-3-3-5--||


      F5D5    G#G5G#G5D5F5D5F5G5  E5F5D5    G#G5G#G5D5F5D5F5G5
                        ~                             ~
    E S E +S  S S S S S E S S S   E S E +S  S S S S S E S S S
||------------------------------|-----------------------------|
||o-----------------------------|-----------------------------|
||------------------------------|-----------------------------|
||----3-0-(0)-------------------|-2-3-0-(0)-------------------|
||o---3-0-(0)-6-5-6-5-0-----3-5-|-2-3-0-(0)-6-5-6-5-0-----3-5-|
||----3-0-(0)-6-5-6-5-0-3-3-3-5-|-2-3-0-(0)-6-5-6-5-0-3-3-3-5-|


                                1.
  C#D5B5    F5E5F5E5B5D5B5D5E5  C#D5B5    F5E5F5E5B5D5B5D5E5
                      ~                             ~
  E S E +S  S S S S S E S S S   E S E +S  S S S S S E S S S
|-----------------------------|------------------------------||
|-----------------------------|-----------------------------o||
|-----------------------------|------------------------------||
|-2-3-0-(0)-------------------|-2-3-0-(0)--------------------||
|-2-3-0-(0)-6-5-6-5-0-----3-5-|-2-3-0-(0)-6-5-6-5-0-----3-5-o||
|-2-3-0-(0)-6-5-6-5-0-3-3-3-5-|-2-3-0-(0)-6-5-6-5-0-3-3-3-5--||


  2.
  E5F5D5    G#G5G#G5D5D5            F5D5    G#G5G#G5D5F5D5F5G5
                                                      ~
  E S E +S  S S S S S S S S S S   E S E +S  S S S S S E S S S
|-------------------------------|-----------------------------|
|-------------------------------|-----------------------------|
|-------------------------------|-----------------------------|
|-2-3-0-(0)-----------0---0---0-|---3-0-(0)-------------------|
|-2-3-0-(0)-6-5-6-5-0-0---0---0-|---3-0-(0)-6-5-6-5-0-----3-5-|
|-2-3-0-(0)-6-5-6-5-0-0---0---0-|---3-0-(0)-6-5-6-5-0-3-3-3-5-|


  C#D5B5    F5E5F5E5B5D5B5D5E5  C#D5B5    F5E5F5E5B5D5B5D5E5
                      ~                             ~
  E S E +S  S S S S S E S S S   E S E +S  S S S S S E S S S
|-----------------------------|-----------------------------|
|-----------------------------|-----------------------------|
|-----------------------------|-----------------------------|
|-2-3-0-(0)-------------------|-2-3-0-(0)-------------------|
|-2-3-0-(0)-6-5-6-5-0-----3-5-|-2-3-0-(0)-6-5-6-5-0-----3-5-|
|-2-3-0-(0)-6-5-6-5-0-3-3-3-5-|-2-3-0-(0)-6-5-6-5-0-3-3-3-5-|


  C#D5B5    F5E5F5E5B5D5C D5E5
                      ~
  E S E +S  S S S S S E S S S
|-----------------------------||
|-----------------------------||
|-----------------------------||
|-2-3-0-(0)-------------------||
|-2-3-0-(0)-6-5-6-5-0-----3-5-||
|-2-3-0-(0)-6-5-6-5-0-3-3-3-5-||


   Outro
    Eb5 D5                                         Eb5
    Gtr II
                 PM----------------|   PM|       PM
                 |-3-|   |-3-| |-3-|
    Q   S S H    S S S   S S S S S S e S S S S S S Q   4x
||---------------------|-------------------------------||
||o--------------------|------------------------------o||
||---------------------|-------------------------------||
||--1---0--------------|---------------------------8---||
||o-1---0--------------|---------------------------6--o||
||--1---0--------0-0-1-|-3-5-6-3-5-6-0-0-0-3-0---0-----||
|
|   Gtr I
|                PM------------------------------|
|                |-3-|   |-3-| |-3-|
|   Q   S S H    S S S   S S S S S S e S S S S S S Q   4x
||---------------------|-------------------------------||
||o--------------------|------------------------------o||
||---------------------|-------------------------------||
||--1/--0--------------|---------------------------8---||
||o-1/--0--------------|---------------------------6--o||
||--1/--0--------0-0-1-|-3-5-6-3-5-6-0-0-0-3-0-0-0-----||


  Eb5 D5
  Gtrs I, II
  Q   H.        +W           +W           +W           +W           +W
|-------------|------------|------------|------------|------------|--------*|
|-------------|------------|------------|------------|------------|--------*|
|-------------|------------|------------|------------|------------|--------*|
|-1---0-------|-(0)--------|-(0)--------|-(0)--------|-(0)--------|-(0)----*|
|-1---0-------|-(0)--------|-(0)--------|-(0)--------|-(0)--------|-(0)----*|
|-1---0-------|-(0)--------|-(0)--------|-(0)--------|-(0)--------|-(0)----*|
|
| Q   H.        +W           +W           +W           +W           +W
|-------------|------------|------------|------------|------------|--------*|
|-------------|------------|------------|------------|------------|--------*|
|-------------|------------|------------|------------|------------|--------*|
|-1/--0-------|-(0)--------|-(0)--------|-(0)--------|-(0)--------|-(0)----*|
|-1/--0-------|-(0)--------|-(0)--------|-(0)--------|-(0)--------|-(0)----*|
|-1/--0-------|-(0)--------|-(0)--------|-(0)--------|-(0)--------|-(0)----*|




----------------
 h   - hammer-on
 p   - pull-off
 b   - bend
 pb  - pre-bend
 r   - bend release (if no number after the r, then release immediately)
 /\  - slide into or out of (from/to "nowhere")
 s   - legato slide
 S   - shift slide
  - natural harmonic
[n]  - artificial harmonic
n(n) - tapped harmonic
 ~   - vibrato
 tr  - trill
 T   - tap
 TP  - trem. picking
 PM  - palm muting
\n/  - tremolo bar dip; n = amount to dip
 \n  - tremolo bar down
 n/  - tremolo bar up
/n\  - tremolo bar inverted dip
 =   - hold bend; also acts as connecting device for hammers/pulls
 <>  - volume swell (louder/softer)
 x   - on rhythm slash represents muted slash
 o   - on rhythm slash represents single note slash

Que te parecio? Calificalo con estrellas!!

Rating: 6.2/10 (29 votos)

Este fichero es trabajo propio de su transcriptor y representa su interpretación personal de la canción. El material contenido en esta página es para exclusivo uso privado, por lo que se prohibe su reproducción o retransmisión, así como su uso para fines comerciales.


Comentario de theguitar369
PARA MAS TABLATURA CONTACTAME EN [email protected] O WWW.METROFLOG.COM/369_EddR
Deja tus comentarios:
Letras de canciones | Musica Independiente