Enviado por:
Jair16

Reik, Sabes (intro)

Imprimir
|------------|-----------|------------|-----------|
|------3-----|-----------|-----6------|-----------|
|--------5---|------3----|------------|-7---5/3---|
|----5-------|--------6--|---8---8----|---8-------|
|--3---------|----6------|-6----------|-----------|
|------------|--4--------|------------|-----------|

|------------|-----------|---------------|
|------3-----|-----------|---------------|
|--------5---|------3----|---------------|
|----5-------|--------6--|------10--6--8-|
|--3---------|----6------|---8-----------|
|------------|--4--------|-6-------------|
Aviso: Este fichero es trabajo propio de su transcriptor y representa su interpretación personal de la canción. El material contenido en esta página es para exclusivo uso privado, por lo que se prohibe su reproducción o retransmisión, así como su uso para fines comerciales.
comentario del colaborador: es un poko dificil pero xvr

Califica esta canción


Comentarios en Facebook