Acordes y tablaturas para guitarra

Acordes y Tablaturas
Usuario: Password:

Buscar:
Acordes y Tablaturas >> Letra A >> Acordes de AC/DC >> Rock and Roll Train
Tablatura de Rock and Roll Train, AC/DC

Rock and Roll Train

AC/DC






Aca les traigo la Rock n` roll train de ac/dc. 
Soy Fabricio G. y espero ke les guste. muy wen tema

NOTA:el tema primero lo saque casi todo, y luego un amigo me mostro el original
asi ke voy a poner para cada cosa el original y el ke sake yo (ke suena muy bien)

INTRO:

 la ke saque:
e|----------------------------------------
B|----------------------------------------
G|-7-7--7-7--7-7---7-7-7--6-6-6--4-4-4----
D|-7-7--7-7--7-7---5-5-5--4-4-4--0-2-2----
A|-0-5--0-5--5-5--------------------------
E|----------------------------------------

La original:
e|-----------------------------------------
B|-2-3--2-3--3-3---3-3-3-2-2--3-3-3-3-2----
G|-2-2--2-2--2-2---0-0-2-2-2--2-2-2-2-2----
D|-2-0--2-0--0-0---0-0-2-2-2--0-0-0-0-2----
A|-0----0----------------------------------
E|-----------------------------------------

VERSOS(primera parte):

lo ke saque
e|------------------
B|------------------
G|-7-7--7-7--7-7----
D|-7-7--7-7--7-7----
A|-0-5--0-5--5-5----
E|------------------

el original
e|-----------------
B|2-3--2-3--3-3----
G|2-2--2-2--2-2----
D|2-0--2-0--0-0----
A|0----0-----------
E|-----------------

entre cada frase angus hace uno de esos

VERSOS(segunda parte):

lo ke saque:
e|--------------------------------------------------------------
B|--------------------------------------------------------------
G|7-7-7-7-7-7--5-5-5-----5---2-2-2--5-5-5---------5-5-5---7-7-7-
D|7-7-7-7-7-7--5-5-5-5-5-5---2-2-2--5-5-5--5-5-5--5-5-5---7-7-7-
A|5-5-5-0-0-0--3-3-3-5-5-3---0-0-0--3-3-3--5-5-5--3-3-3---5-5-5-
E|--------------------------------------------------------------

el original:
e|--------------------------------------------------------------
B|-3-3-3-2-2--1-1-1-3-3---3-----------------------------3-3-3-3-
G|-2-2-2-2-2--0-0-0-0-0-0-0--------------------------2--2-2-2-2-
D|-0-0-0-2-2--2-2-2-0-0-2-0--2-2-2-2-2-2-5-5-5-2-2-2-2--0-0-0-0-
A|-------0-0--3-3-3-x-x-3-x--0-0-0-3-3-3-5-5-5-3-3-3-0----------
E|------------------3-3---3--------------3-3-3------------------

despues de esto angus hace un cambio ke no saque todavia

CORO:

el mio: igual a la intro

el original: igual a la intro

VERSOS:iguales a los primeros

CORO:igual al primero, pero al final angus deja ke malcolm toke para hacer la entrada al solo:

SOLO(con distorcion):

entrada:
e|--------
B|--------
G|-7/9v---
D|--------
A|--------
E|--------

el resto:
e|--------------------------------------------------------------
B|-----------------------------------------------------8---8-10-
G|5---5--------5-7b!-7/9v-7/9v-7/9v---7-5---5-5v---8-9---9------
D|--7---5-7v------------------------------7---5v----------------
A|--------------------------------------------------------------
E|--------------------------------------------------------------

e|--8v-8v-8v-------12v-12v-12v-12v--10br-10-8---------
B|8----------10----13v-13v-13v-13v------------10-10---
G|----------------------------------------------------
D|----------------------------------------------------
A|----------------------------------------------------
E|----------------------------------------------------

una vez terminado el solo:
e|------------
B|-13v-10v----
G|------------
D|------------
A|------------
E|------------

luego del solo viene un verso y un coro, como no se el outtro, termino aca

Que te parecio? Calificalo con estrellas!!

Rating: 5.3/10 (129 votos)

Este fichero es trabajo propio de su transcriptor y representa su interpretación personal de la canción. El material contenido en esta página es para exclusivo uso privado, por lo que se prohibe su reproducción o retransmisión, así como su uso para fines comerciales.


Comentario de angus/young
FRETPLAY.COM
Deja tus comentarios:

Letras de AC/DC
Letras de canciones | Musica Independiente