Enviado por: jovenespordioseros
Agrandar Letra
Reducir Letra
Imprimir


Otras Versiones de Black Night:




Deep Purple, Black Night

G|-------------------------------------------------------------| 
D|-----5---------------5------7---5-----------------------5----| 
A|--7----7--5----5--7------7---------7---5---7---------------7-| 
E|-------------7-----------------------------------------------| 
 
G|-------------------------------------------------------------| 
D|-----5---------------5------7---5-----------------------5----| 
A|--7----7--5----5--7------7---------7---5---7---------------7-| 
E|-------------7-----------------------------------------------| 

0.17 
G|-------------------------------------------------------| 
D|-------------------------------------------------------| 
A|-57777777-57777777-57777777-57777777-57777777-57777777-| 
E|-------------------------------------------------------| 

0.28 
G|------------------------------------------------| 
D|---------------------4--------------------------| 
A|--7--5-----5-----5------7---5---7---5-----------| 
E|--------7-----7-------------------------7---5---| 
 
G|------------------------------------| 
D|------------------------------------| 
A|------------------------------------| 
E|-55555555-33333333-0000000000000000-| 
 
G|------------------------------------| 
D|------------------------------------| 
A|------------------------------------| 
E|-55555555-33333333-7----------------| 
                      |///////////////| 
 
0.46 
G|---------------------------------------------------------------| 
D|-----5----------------5------7---5-----------------------5-----| 
A|--7----7--5----5--7------7----------7---5---7---------------7--| 
E|-------------7-------------------------------------------------| 
 
G|---------------------------------------------------------------| 
D|-----5----------------5------7---5-----------------------5-----| 
A|--7----7--5----5--7------7----------7---5---7---------------7--| 
E|-------------7-------------------------------------------------| 

1.00 
G|-------------------------------------------------------| 
D|-------------------------------------------------------| 
A|-57777777-57777777-57777777-57777777-57777777-57777777-| 
E|-------------------------------------------------------| 
 
G|-------------------------------------------------| 
D|--------------------4----------------------------| 
A|--7--5-----5-----5------7---5---7---5------------| 
E|--------7-----7---------------------------7---5--| 
 
G|------------------------------------| 
D|------------------------------------| 
A|------------------------------------| 
E|-55555555-33333333-0000000000000000-| 
 
G|------------------------------------| 
D|------------------------------------| 
A|------------------------------------| 
E|-55555555-33333333-7----------------|  
                      |///////////////| 
1.30 
G|-------------------------------------------------------| 
D|-------------------------------------------------------| 
A|-57777777-57777777-57777777-57777777-57777777-57777777-| 
E|-------------------------------------------------------| 
 
G|-------------------------------------------------------| 
D|-------------------------------------------------------| 
A|-57777777-57777777-57777777-57777777-57777777-57777777-| 
E|-------------------------------------------------------| 
1.50 
G|-------------------------------------------------| 
D|---------------------4---------------------------| 
A|--7--5-----5-----5------7---5---7---5------------| 
E|--------7-----7--------------------------7---5---| 
 
G|-------------------------------------| 
D|-------------------------------------| 
A|-------------------------------------| 
E|-55555555-33333333-55555555-33333333-| 
 
G|-------------------------------------| 
D|-------------------------------------| 
A|-------------------------------------| 
E|-55555555-33333333-55555555-33333333-| 
 
G|-------------------------------------| 
D|-------------------------------------| 
A|-------------------------------------| 
E|-55555555-33333333-55555555-33333333-| 

2.15 
G|---------------------------------------------------------------| 
D|-----5----------------5------7---5-----------------------5-----| 
A|--7----7--5----5--7------7----------7---5---7---------------7--| 
E|-------------7-------------------------------------------------| 
 
G|---------------------------------------------------------------| 
D|-----5----------------5------7---5-----------------------5-----| 
A|--7----7--5----5--7------7----------7---5---7---------------7--| 
E|-------------7-------------------------------------------------| 
 
G|-------------------------------------------------------| 
D|-------------------------------------------------------| 
A|-57777777-57777777-57777777-57777777-57777777-57777777-| 
E|-------------------------------------------------------| 

2.40 
G|-------------------------------------------------| 
D|---------------------4---------------------------| 
A|--7--5-----5-----5------7---5---7---5------------| 
E|--------7-----7---------------------------7---5--| 
 
G|------------------------------------| 
D|------------------------------------| 
A|------------------------------------| 
E|-55555555-33333333-0000000000000000-| 
 
G|------------------------------------| 
D|------------------------------------| 
A|------------------------------------| 
E|-55555555-33333333-7----------------|  
	             |///////////////|  
2.58 
G|----------| 
D|----------| 
A|-57777777-| 
E-----------| repetilo 14 veces
Aviso: Este fichero es trabajo propio de su transcriptor y representa su interpretación personal de la canción. El material contenido en esta página es para exclusivo uso privado, por lo que se prohibe su reproducción o retransmisión, así como su uso para fines comerciales.

Califica esta canción


Comentarios en Facebook