Enviado por: darkrai7
Agrandar Letra
Reducir Letra
Imprimir


Otras Versiones de Make A Memory:

Bon Jovi, Make A Memory

Mi Tab x(amnx)

e.|--------------------------|
B.|--------------------------|
G.|--------------------------|
D.|---5-5-5-5-5-5-5-5--------|
A.|---3-3-3-3-3-3-5-5--------|
E.|--------------------------|

e.|--------------------------|
B.|--------------------------|
G.|--------------------------|
D.|---5-5-5-5-5-5-5-5--------|
A.|---2-2-2-2-2-2-2-2--------|
E.|--------------------------|

e.|--------------------------|
B.|--------------------------|
G.|--------------------------|
D.|---9-9-9-9-9-9-9-9--------|
A.|---7-7-7-7-7-7-7-7--------|
E.|--------------------------|

e.|--------------------------|
B.|--------------------------|
G.|--------------------------|
D.|--10-10-10-10-10-10-10-10-| 10 con el 8 se tocan juntas al 
A.|--8--8--8--8--8--8--8--8--| igual que las anteriores
E.|--------------------------|


     un pequeño solo
   
e.|---8-7-8-8----------------|
B.|--------------------------|
G.|--------------------------|
D.|--------------------------|
A.|--------------------------|
E.|--------------------------|
Aviso: Este fichero es trabajo propio de su transcriptor y representa su interpretación personal de la canción. El material contenido en esta página es para exclusivo uso privado, por lo que se prohibe su reproducción o retransmisión, así como su uso para fines comerciales.

Califica esta canción


Comentarios en Facebook