Acordes y tablaturas para guitarra

Acordes y Tablaturas
Usuario: Password:

Buscar:
Acordes y Tablaturas >> Letra T >> Acordes de The Beatles >> Something
Acordes de Something, The Beatles

Something

The Beatles






a.a7.am.c.csosm.c-g.c7.d.d7.
e.eb.f.fsosm.fsosm7.g.gsos.
intro:  B----10-13-12-10-11-12

C                         C7
Something in the way she moves
F                          E
Attracts me like no other lover
D                          D7
Something in the way she woos me


Am
I don't want to leave her now
A7
You know I believe her now

B-10-13-12-10-11-12

C                          C7
Somewhere in her smile she knows
F                           E
That I don't need no other lover
D                             D7
Something in her style that shows me

Am                         
Don't want to leave her now
A7
You know I believe her now

B-10-13-12-10-11-12

A              C#m            F#m   F#m7            D       G        A 
You,re asking me will my love grow.        I don,t know   I don,t know 
A            C#m            F#m   F#m7             D       G        C 
You stick around now it may show.        I don,t know    I don,t know.

Guitar solo:
     C            Cmaj7                C7
-|------------------------------------------------------------------
-|-------8------------------------------------8--10--8--11/13--13---
-|--7/9-----9--7/9--12b[14]--b[14]12--9--7/9------------------------
-|------------------------------------------------------------------
-|------------------------------------------------------------------
-|------------------------------------------------------------------

               F                                                
-|------------------------------------------------------------------
-|--b[15]13--b[17]15--13-----------13--13---------------------------
-|------------------------14--/14----------14-------12--12----------
-|---------------------------------------------/14----------14------
-|--------------------------------------------------------------12--
-|------------------------------------------------------------------

    D                                   G
-|------------------------------------------------------------------
-|------------------------------------------------------------------
-|-------------------11--11--b[16]14--b[16]14--b[16]14--12----------
-|--------------/12-------------------------------------------------
-|--12--14--12------------------------------------------------------
-|------------------------------------------------------------------

                             Am               G#+ 
-|----------------------------------------------------------------------
-|------14--13--12/16--15--14-------------------------------------------
-|--12-------------------------b[9]7--b[9]7--5--b[9]7--b[9]7--b[9]7--5--
-|----------------------------------------------------------------------
-|----------------------------------------------------------------------
-|----------------------------------------------------------------------

    C/G                        D                  F                Eb  G   C
-|---------------------------10/12--10--8--10--8------------------------------
-|------------------------8-----------------------10--b[13]12--10--11--12--13-
-|--b[9]7--b[9]7--5--7/9------------------------------------------------------
-|----------------------------------------------------------------------------
-|----------------------------------------------------------------------------
-|----------------------------------------------------------------------------





C                         C7
Something in the way she knows
F                               E
And all I have to do is think of her
D                                 
Something in the things she shows me

Que te parecio? Calificalo con estrellas!!

Rating: 6.8/10 (219 votos)

Este fichero es trabajo propio de su transcriptor y representa su interpretación personal de la canción. El material contenido en esta página es para exclusivo uso privado, por lo que se prohibe su reproducción o retransmisión, así como su uso para fines comerciales.


Comentario de frannXD
jaja noc es un kilombo espero les guste bye
Deja tus comentarios:

Letras de The Beatles
Letras de canciones | Musica Independiente