Enviado por: *santana_lliyo*
Agrandar Letra
Reducir Letra
Imprimir











Santana, Mujer De Magia Negra

bueno aqui les dejo una tablatura de la cancion de santana mujer de magia negra (blac magic woman) bueno a qui esta 

intro:

e -1----------------------
b -2--3b5-----------------
g -3---------------------- x2
d ------------------------
a ------------------------
E ------------------------

aqui solo en donde bemos el 3 lo resbalamos asta el traste 5 pero rapido para q le de un efecto mas paresido 

e -5-3-2-0---3-2-0---------
b -----------------3-------
g ------------------------- x2
d -------------------------
a -------------------------
E -------------------------

e -10-8-10-8-----8b10---10-8-10-8----------------
b ------------10------------------10-8-10-8------
g ------------------------------------------10-9-
d -----------------------------------------------
a -----------------------------------------------
E -----------------------------------------------

Bueno asta aqui les tengo para la siguiente semana si puedo sigo con lo demas
Aviso: Este fichero es trabajo propio de su transcriptor y representa su interpretación personal de la canción. El material contenido en esta página es para exclusivo uso privado, por lo que se prohibe su reproducción o retransmisión, así como su uso para fines comerciales.
comentario del colaborador: para la otra semana les dejo mas bye espero q le sirba y si me equibo q en algo mandemen un mensaje a mi msn:[email protected] adios asta luego q se la pasen bien

Califica esta canción


Comentarios en Facebook