Acordes y tablaturas para guitarra

Acordes y Tablaturas
Usuario: Password:

Buscar:
Acordes y Tablaturas >> Letra M >> Acordes de Marilyn Manson >> Sweet Dreams
Tablatura de Sweet Dreams, Marilyn Manson

Sweet Dreams

Marilyn Manson






Hola, Compas, Guitarristas! Como están? Soy Black Dog, y esta vez les Traigo La Tablatura de La canción ?SWEET DREAMS? de MARILIN MANZON, el ?Anticristo?, como el se hace llamar. Esta Muy Fácil, Así q no les dará problemas.

/ - Resbalar la cuerda.
b ? Elevar la cuerda.
br- Elevar la cuerda y regresar.
> - Dejar el eco de la nota.
bs- Sostener bend. 
~~- Vibrato que perdure.
~~~~~ - Vibrato exagerado.

SWEET DREAMS
MARILIN MANZON

     Intro (Voces raras, y luego:)
|------4---5---4---|-----------------------| 
|-2--2---2---2---2-|------(5/6)------(4/5)-| x10
|------------------|-3--3-------2--2-------|

(Para Guitarra Eléctrica, suplanten los SLIDES por BENDS: (5b) y (4b).)
	
     Riff I
|-5-5-5-5-5-5-5-5-5-5-5-5-5-5-|
|-5-5-5-5-5-5-5-5-5-5-5-5-5-5-|
|-3-3-3-3-3-3-3-3-3-3-3-3-3-3-|

|-5-4-4-/-9-9-9-9-9-9-9-9-------|
|-5-4-4-/-9-9-9-9-9-9-9-9-------|
|-3-2-2-/-7-7-7-7-7-7-7-7-7/9-9-|

|-5-5-5-5-5-5-5-5-4/5-5-5-5-5-5-5-5-4-4-4-4-4-4-4-4-|
|-5-5-5-5-5-5-5-5-4/5-5-5-5-5-5-5-5-4-4-4-4-4-4-4-4-|
|-3-3-3-3-3-3-3-3-2/3-3-3-3-3-3-3-3-2-2-2-2-2-2-2-2-|

Intro x12: con una distorsión especial:- LO SIGUIENTE ES SOLO PARA GUITARRA ELECTRICA- tienes q tocar la cuerda y luego hacer el bend sin q c escuche, Pues tendrás q tocarla d nuevo mientras la sostienes.

     PreSolo (Distorsión)
|-9/7--7--9---9br--9-7--9--9br-|
|------------------------------| A
|------------------------------|                                                    
|------------------------------|

|-9/7--7--9---9br--9/7---7--9--9/11^-|
|------------------------------------|
|------------------------------------|
|------------------------------------|

Repetir lo que tiene la letra A.

|---2>>>>>-(--7>>>>)--| B
|-0-1>>>>>-(0-5>>>>)--|

Realizar  lo de la letra B x3, y un último sin la parte que esta entre paréntesis.

     Solo(sin la distorsión adecuada, no sonará igual)
|-10bs-/-12---15--11~---13-----|
|---------------------------10-|
|------------------------------|
|------------------------------|
|------------------------------|

     Realizar esto con una distorsión que haga que lo de los paréntesis suene sin necesidad de tocarlo muy fuerte
|-9/7--7--9--6~~~~-|
|------------------|
|------------------|
|------------------|
|--------------------------------------15--17-|
|-6-6h7--7///9---11--11--12-9-9///12----------|
|---------------------------------------------|
|---------------------------------------------|
|---------------------------------------------|
 Fin del Solo.

 Voz.
 Intro x4
 Presolo.

Y hasta aquí termina la rola, espero que les haya servido de algo. Si quieren alguna tab. O comunicarse conmigo, aquí ta mi correo: [email protected]

Que te parecio? Calificalo con estrellas!!

Rating: 6.6/10 (110 votos)

Este fichero es trabajo propio de su transcriptor y representa su interpretación personal de la canción. El material contenido en esta página es para exclusivo uso privado, por lo que se prohibe su reproducción o retransmisión, así como su uso para fines comerciales.


Deja tus comentarios:
Letras de canciones | Musica Independiente