Acordes y tablaturas para guitarra

Acordes y Tablaturas
Usuario: Password:

Buscar:
Acordes y Tablaturas >> Letra L >> Acordes de Los Panchos >> Las Mañanitas
Tablatura de Las Mañanitas, Los Panchos

Las Mañanitas

Los Panchos






bueno esta cancion es muy conocida a nivel mundial la famosa llamada las mañanitas, esta es para guitarra



e--------------0------0-2-----0-2-3----3-3-2
b-----3---3-2-3---2-3-------3---------------
g-2-2---------------------------------------
d-------------------------------------------
a-------------------------------------------
e-------------------------------------------

e----0-----0-------0-2-3-0------------
b------3-2---3-2-3---------3----------
g-------------------------------------
d-------------------------------------
a-------------------------------------
e-------------------------------------



e-2-0-----0-2---2-0------0-2-------3--
b----3-2-3---3-----3-2-3-------3-3----
g-------------------------------------
d-------------------------------------
a-------------------------------------
e-------------------------------------


a---3-5-3-2-------0-2-3-0-------------
b----------3-2-3---------3------------
g-------------------------------------
d-------------------------------------
a-------------------------------------
e-------------------------------------



e--------------------------2-0--------
b---3----2-3-3--2-3-3----3-----3-2-3--
g-2-----------------------------------
d-------------------------------------
a-------------------------------------
e-------------------------------------



e0-0----0----0-0---0-0---0-3-2--2-0-0
b------2----3-----3------------------
g------------------------------------
d------------------------------------
a------------------------------------
e------------------------------------



e---------
b-2-3-3---
g---------
d---------
a---------
e---------


e----------------0-0---0-2-3---2-3-3-2-3----3-2-0
b--3-2---0-2---3---------------------------------
g------------------------------------------------
d------------------------------------------------
a------------------------------------------------
e------------------------------------------------


e---------0-2-2--2-3-2--2-0---------
b-3---2-3-----------------------2-3-
g-----------------------------------
d-----------------------------------
a-----------------------------------
e-----------------------------------

Que te parecio? Calificalo con estrellas!!

Rating: 8.2/10 (476 votos)

Este fichero es trabajo propio de su transcriptor y representa su interpretación personal de la canción. El material contenido en esta página es para exclusivo uso privado, por lo que se prohibe su reproducción o retransmisión, así como su uso para fines comerciales.


Deja tus comentarios:
Letras de canciones | Musica Independiente