Acordes y tablaturas para guitarra

Acordes y Tablaturas
Usuario: Password:

Buscar:
Acordes y Tablaturas >> Letra P >> Acordes de Pastilla >> Colores
Acordes de Colores, Pastilla

Colores

Pastilla






a.b.c.e.fsos.fsosm.
Intro:
e|------------------------|-----------------------|
B|------------------------|-----------------------|
G|------------------------|-----------------------|
D|------------------------|-----------------------|
A|--7-7--9--11--9--7---7--|--7-7--9--11?-9--7-----|
E|------------------------|--------------------9--|
                                                      x2
e|------------------------|-----------------------|
B|------------------------|-----------------------|
G|------------------------|-----------------------|
D|------------------------|-----------------------|
A|--7-7--9--11--9--7------|--7-7--9--11--9?-7---7-|
E|---------------------9--|-----------------------|


E
 Ya es muy tarde, no es tan tarde.
A
 Espera un poco, espera un ratito.
E
 Dame tu mano, nada importa.
A              C
 Estamos solos,  y estas mojada.

CORO:

E
 Cuando todo es de color
                  A 
el azul es el mejor
                       F#m      B
cuando quieras descubrir y tu piel quieras abrir
E
 Cuando todo te va mal
                     A 
piensa solo en mi voz.
                F#m       B
Toma una navaja y cortate las venas.

solo:
|--10-8-10-8-10-8-10-8--------------------------|
|-----------------------10-8-10-8-10-8-10-8-----|
|-----------------------------------------------| x2
|-----------------------------------------------|
|--------------------------------------?--------|
|-----------------------------------------------|

|---8-6-8-6-8-6-8-6-----------------------------|
|------------------------8-6-8-6-8-6-8-6--------|
|-----------------------------------------------|
|-----------------------------------------------|
|--------------------------------------?--------|
|-----------------------------------------------|

|---8-6-8-6-8-6-8-6-----------------------------|
|------------------------8-8-8-8-8-7-5----------|
|-----------------------------------------------|
|-----------------------------------------------|
|--------------------------------------?--------|
|-----------------------------------------------|

|-----------------------------------------------|
|-----------------------------------------------|
|-----------------------------------------------|
|-----------------------------------------------|
|-----------------------------------------------|
|---0-0-0-2-4-2-0-0---0-0-0-2-4-----------------|


|-----------------------------------------------|
|-----------------------------------------------|
|-----------------------------------------------|
|------------------2-4-4-2-----------2-4-4-2-2--|
|--2-4-2s4--4-4-4--?-------4----4-4-4-----------|
|--------------------------------------------0--|



E
 Por la mañana, abres los ojos.
A
 Y te levantas, tomas un baño.
E
 Llama a un taxi, hacia el estudio
A                 C
 todos te esperan, y estan enojados.

CORO:

E
 Cuando todo es de color
                   A 
el azul es el mejor.
                      F#m       B
Cuando quieras descubrir y tu piel quieras abrir.
E
Cuando todo te va mal
                    A 
piensa solo en mi voz.
                F#      B
Toma una navaja y cortate las venas.


E
 Cuando todo es de color
                   A 
el azul es el mejor.
                      F#m       B
Cuando quieras descubrir y tu piel quieras abrir.
E
Cuando todo te va mal
                    A 
piensa solo en mi voz.
                F#m      B
Toma una navaja y cortate las venas.


E
 Cuando todo es de color
                   A 
el azul es el mejor.
                      F#m       B
Cuando quieras descubrir y tu piel quieras abrir.
E
Cuando todo te va mal
                    A 
piensa solo en mi voz.
                F#m      B
Toma una navaja y cortate las venas.

F#m      B
Y cortate las venas...

F#m      B
Y cortate las venas...

F#m      B
Y cortate las venas...

Que te parecio? Calificalo con estrellas!!

Rating: 6.0/10 (21 votos)

Este fichero es trabajo propio de su transcriptor y representa su interpretación personal de la canción. El material contenido en esta página es para exclusivo uso privado, por lo que se prohibe su reproducción o retransmisión, así como su uso para fines comerciales.


Deja tus comentarios:
Letras de canciones | Musica Independiente