Enviado por: llpendeyvizll
Agrandar Letra
Reducir Letra
Imprimir


Otras Versiones de I WAS MADE FOR LOVING YOU:

Kiss, I WAS MADE FOR LOVING YOU

ANTES DE EMPEZAR KIERO DECIR Q ESTA CANCION NO ES NINGUNA COPIA!

1)----------------|----------------| R
2)--3--1.-3-3--1.-|--0-----0-0-----| E
3)----------------|-----2.------2.-| P
4)----------------|----------------| I
5)----------------|----------------| T
6)----------------|----------------| E

1RRA PARTE:

1)--------------0-0-----------|--------------0-0-----| R
2)-----0--1--3-------3--1--0--|-----0--1--3-------3.-| E
3)--2-------------------------|--2-------------------| P
4)----------------------------|----------------------| I
5)----------------------------|----------------------| T
6)----------------------------|----------------------| E

2DA PARTE:

1)-----0-0-0--------0.-|--0--0--0.-----------0-----------| R
2)-----------3-1-3-----|-----------3--3.-3-3----3--1-----| E
3)--2.-----------------|------------------------------2.-| P
4)---------------------|---------------------------------| I
5)---------------------|---------------------------------| T
6)---------------------|---------------------------------| E

FINAL:

1)-----------|---------|-----------|---------|
2)-----0--1.-|---DES---|-----0--1.-|---------| DESPUES
3)--2--------|---CAN---|--2--------|---DES---| REPITES
4)-----------|---SAS---|-----------|---CAN---| LA PRIMERA
5)-----------|---------|-----------|---SAS---| PARTE
6)-----------|---------|-----------|---------|

AHI LES DEJO LA CANCION NO ESTA MUY DIFICIL SOLO PRACTIKENLA.

GRACIAS.
Aviso: Este fichero es trabajo propio de su transcriptor y representa su interpretación personal de la canción. El material contenido en esta página es para exclusivo uso privado, por lo que se prohibe su reproducción o retransmisión, así como su uso para fines comerciales.
comentario del colaborador: Esta seria mi segunda cancion si no me hubiesen rechazado la otra :(.

Califica esta canción


Comentarios en Facebook