Acordes y tablaturas para guitarra

Acordes y Tablaturas
Usuario: Password:

Buscar:
Acordes y Tablaturas >> Letra M >> Acordes de Megadeth >> Holy Wars
Tablatura de Holy Wars, Megadeth

Holy Wars

Megadeth

Transcriptor:
franco_maiden
Letras de Canciones
Acordes para Guitarra





e|-----------------------------------| 
B|-----------------------------------| 
G|-----------------------------------| 
D|-----------------------------------| 
A|-5-6-7---------------------------2-| 
E|--------5-6-7--7-6-5--5-4-3--5-3-0-| 
 
e|-----------------------------------| 
B|-----------------------------------| 
G|-----------------------------------| 
D|-----------------------------------| 
A|-5-6-7---------------------------4-| 
E|--------5-6-7--7-6-5--5-4-3--5-3-2-| 
                
e|----------------------------| 
B|----------------------------| 
G|----------------------------| 
D|----------------------------| 
A|-5-6-7----------------------| 
E|--------5-6-7--7-6-5--5-4-3-| 
 
e|------------------------------| 
B|------------------------------| 
G|------------------------------| 
D|------------------------------| 
A|-7-8-9------------------------| 
E|--------8-9-10--10-9-8--9-8-7-| 
 
e|--------------------------------| 
B|--------------------------------| 
G|--------------------------------| 
D|--------------------------------| 
A|-5-6-7--------------------------| 
E|--------5-6-7--7-6-5--5-4-3--00-| 
                               ** 
 
Riff 2 
e|--------------------------------------------| 
B|--------------------------------------------| 
G|--------------------------------------------| 
D|--------------------------------------------| 
A|-5h7-----10p7----------5h7-----5h7------7-8-| 
E|-----000------00000000-----000-----0000-5-6-| 
       ***      ********     ***     **** 
e|--------------------------------------------| 
B|--------------------------------------------| 
G|--------------------------------------------| 
D|----------------------------------------9---| 
A|-5h7-----10p7----------5h7-----5h7------7-8-| 
E|-----000------00000000-----000-----0000---6-| 
       ***      ********     ***     **** 
e|--------------------------------------------| 
B|--------------------------------------------| 
G|--------------------------------------------| 
D|----------------------------------------4---| 
A|-5h7-----10p7----------5h7-----5h7------2-5-| 
E|-----000------00000000-----000-----0000---3-| 
       ***      ********     ***     **** 
e|----------------------------------------------| 
B|----------------------------------------------| 
G|----------------------------------------------| 
D|---------------------------------------4----4-| 
A|-5h7-----10p7--------9-------8-----7---2----2-| 
E|-----000------000000-7--0000-6--00-5-0--------| 
       ***      ******    ****    **   * 
 
e|----------| 
B|----------| 
G|----------| 
D|-4--------| 
A|-2--5--4--| 
E|----3--2--| 
 
 
Riff 3 
e|--------------------------------------------| 
B|--------------------------------------------| 
G|--------------------------------------------| 
D|--------------------------------------------| 
A|-5h7-----10p7----------5h7-----5h7------7-8-| 
E|-----000------00000000-----000-----0000-5-6-| 
       ***      ********     ***     **** 
e|--------------------------------------------| 
B|--------------------------------------------| 
G|--------------------------------------------| 
D|----------------------------------------9---| 
A|-5h7-----10p7----------5h7-----5h7------7-8-| 
E|-----000------00000000-----000-----0000---6-| 
       ***      ********     ***     **** 
e|--------------------------------------------| 
B|--------------------------------------------| 
G|--------------------------------------------| 
D|----------------------------------------4---| 
A|-5h7-----10p7----------5h7-----5h7------2-5-| 
E|-----000------00000000-----000-----0000---3-| 
       ***      ********     ***     **** 
e|------------------------------------------| 
B|------------------------------------------| 
G|------------------------------------------| 
D|------------------------------------------| 
A|-5h7-----10p7-----------------------------| 
E|-----000------000000-7~--0000-6~--00-5~-0-| 
       ***      ******     ****     **    * 
e|------------------------------------------| 
B|------------------------------------------| 
G|------------------------------------------| 
D|------------------------------------------| 
A|-5h7-----10p7--------6~-------5~-----4~---| 
E|-----000------000000-----0000-----00----5-| 
       ***      ******     ****     **      
e|------------------------------------------| 
B|------------------------------------------| 
G|------------------------------------------| 
D|------------------------------------------| 
A|-5h7-----10p7--------9~-------8~-----7~---| 
E|-----000------000000-----0000-----00----8-| 
       ***      ******     ****     **     
e|------------------------------------------| 
B|------------------------------------------| 
G|------------------------------------------| 
D|---------------------9~-------8~-----7~---| 
A|-5h7-----10p7---------------------------8-| 
E|-----000------000000-----0000-----00------| 
       ***      ******     ****     **     
 
 
Riff 4 
Guitar 1                                   x7 
e|------------------------------------------| 
B|------------------------------------------| 
G|------------------------------------------| 
D|------------------------------------------| 
A|-5h7-----10p7----------5h7-----5h7------9-| 
E|-----000------00000000-----000-----0000-7-| 
       ***      ********     ***     **** 
e|----------------------------------------| 
B|----------------------------------------| 
G|----------------------------------------| 
D|----------------------------------------| 
A|-5h7-----10p7----------5h7-----5h7------| 
E|-----000------00000000-----000-----0000-| 
       ***      ********     ***     **** 
 
Guitar 2 
e|--------------------------------------------| 
B|--------------------------------------------| 
G|--------------------------------------------| 
D|----12----------12----14--------------------| 
A|-10----10----10----12----------14-----------| 
E|----------12-------------12-11----10--/12~~-| 
 
e|----------------------------------------------| 
B|----------------------------------------------| 
G|----------------------------------------------| 
D|----12----------12-------13--------12---------| 
A|-10----10----10-------------------------------| 
E|----------12-------11-14-----10-13----10/12~~-| 
 
 
Riff 5 
e|-------------------------------------| 
B|-------------------------------------| 
G|-------------------------------------| 
D|-------------------------------------| 
A|-5---4/5---4-----4/5-----54-----4/5-| 
E|-3-0-2/3-0-2-0-0-2/3-0-0-32-0-0-2/3-| 
     *     *   * *     * *     * *  
e|----------------------------------------| 
B|----------------------------------------| 
G|----------------------------------------| 
D|----------------------------------------| 
A|-5h7-----10p7----------5h7-----5h7------| 
E|-----000------00000000-----000-----0000-| 
       ***      ********     ***     **** 
e|-------------------------------------| 
B|-------------------------------------| 
G|-------------------------------------| 
D|-------------------------------------| 
A|-2---1/2---1-----1/2-----21-----1/2-| 
E|-3-0-2/3-0-2-0-0-2/3-0-0-32-0-0-2/3-| 
     *     *   * *     * *     * *  
e|----------------------------------------| 
B|----------------------------------------| 
G|----------------------------------------| 
D|----------------------------------------| 
A|-5h7-----10p7----------5h7-----5h7------| 
E|-----000------00000000-----000-----0000-| 
       ***      ********     ***     **** 
e|-------------------------------------| 
B|-------------------------------------| 
G|-------------------------------------| 
D|-------------------------------------| 
A|-5---4/5---4-----4/5-----54-----4/5-| 
E|-3-0-2/3-0-2-0-0-2/3-0-0-32-0-0-2/3-| 
     *     *   * *     * *     * *  
e|----------------------------------------| 
B|----------------------------------------| 
G|----------------------------------------| 
D|----------------------------------------| 
A|-5h7-----10p7----------5h7-----5h7------| 
E|-----000------00000000-----000-----0000-| 
       ***      ********     ***     **** 
e|------------------------------------| 
B|------------------------------------| 
G|------------------------------------| 
D|------------------------------------| 
A|-2---1/2---1-----1/2-----21-----1/-| 
E|-3-0-2/3-0-2-0-0-2/3-0-0-32-0-0-2/-| 
     *     *   * *     * *     * *  
 
Riff 6 
e|-------------------------------------| 
B|-------------------------------------| 
G|------------4--3---------------------| 
D|------------5--4---------------------| 
A|-5-6-7-------------5-6-7------5--6-5-| 
E|-------000---------------0000-6--7-6-| 
         ***               **** 
  "Brother will kill brother..." 
e|----------------------------------------| 
B|----------------------------------------| 
G|----------------------------------------| 
D|-----------5--5-------------------------| 
A|-5-6-7-----7--6---5-6-7-------------1-2-| 
E|-------000---------------0000-2~--0-2-3-| 
         ***               ****     *  
  "Spilling blood across the land..." 
e|-------------------------------| 
B|-------------------------------| 
G|-------------------------------| 
D|-------------------------------| 
A|-4-1-2-4----2-4-5-2-4-5--4-2-4-| 
E|-5-2-3-5--0-3-5-6-3-5-6--5-3-5-| 
     * *      * *   * *        
  "Killing for religion..." 
e|--------------------------------| 
B|--------------------------------| 
G|--------------------------------| 
D|--------------------------------| 
A|--------5--4-2-4---------5--4-2-| 
E|-000000-6--5-3-5--000000-6--5-3-| 
   ******           ****** 
  "Something I don't understand..." 
 
 
Lead into next section: 
e|-----------------------------------| 
B|-----------------------------------| 
G|-----------------------------------| 
D|-----------------------------------| 
A|-5-6-7---------------------------2-| 
E|--------5-6-7--7-6-5--5-4-3--5-3-0-| 
   "Holy Wars...." 
 
 
Solo (Acoustic) 
e|----------------8---12p11p8--11-| 
B|----12----10-12-----------------| 
G|--9-----------------------------| 
D|--------------------------------| 
A|--------------------------------| 
E|--------------------------------| 
 
e|-12p8-12-10p7-10-8p5-8-7p4-7-5p1-5-| 
B|-----------------------------------| 
G|-----------------------------------| 
D|-----------------------------------| 
A|-----------------------------------| 
E|-----------------------------------| 
 
e|-4p0-4-5p1-5--7-7/10--7--5h6p5---| 
B|-------------------------------6-| 
G|---------------------------------| 
D|---------------------------------| 
A|---------------------------------| 
E|---------------------------------| 
 
e|---------------------------------------------0-| 
B|---------------------------------------------0-| 
G|-7-8-9-6-8-9-8-7-6-5-4--2-5-4-2-1--------------| 
D|----------------------------------5-4-3-2----2-| 
A|---------------------------------------------2-| 
E|---------------------------------------------0-| 
 
End solo 
 
 
Riff 6  
e|------------------------------------| 
B|------------------------------------| 
G|------------------------------------| 
D|------------------------------------| 
A|-10-9---9-----10-9---9-----9-10-12~-| 
E|--8-7-0-7-0-0--8-7-0-7-0-0-7--8-10~-| 
        *   * *      *   * *    
  "Up on my podium..." 
 
 
Riff 7 
e|-----------------------------| 
B|-----------------------------| 
G|-----------------------------| 
D|-----1/2---4-----5------(5)-| 
A|---------2-----3-3------(3)-| 
E|-0-0---------0---------------| 
   * *           
e|-----------------0--------0-------| 
B|-------------------0--------0-----| 
G|----------------------------------| 
D|---1/2---4------------------------| 
A|-------2-----2-1------1-0-----0-2-| 
E|-0---------0-3-2------2-1-----1-0-| 
              
e|-----------------------------| 
B|-----------------------------| 
G|-----------------------------| 
D|-----1/2---4-----5------(5)-| 
A|-(2)-----2-----3-3------(3)-| 
E|-(0)---------0---------------| 
                 
e|-----------------0--------0-------| 
B|-------------------0--------0-----| 
G|----------------------------------| 
D|---1/2---4------------------------| 
A|-------2-----2-1------1-0-----0-2-| 
E|-0---------0-3-2------2-1-----1-0-| 
               
 
 
Riff 7a 
e|----------------------------------| 
B|----------------------------------| 
G|----------------------------------| 
D|-----1/2---4-----5--5-5-5-5-5-5-5-| 
A|---------2-----3-3--3-3-3-3-3-3-3-| 
E|-0-0---------0--------------------| 
   * *                * * * * * * * 
  "Wage the war..." 
e|-------------------0--------0-------| 
B|---------------------0--------0-----| 
G|------------------------------------| 
D|-----1/2---4------------------------| 
A|---------2-----2-1------1-0-----0-2-| 
E|-0-0---------0-3-2------2-1-----1-0-| 
   * *           
  "...on organized crime..." 
 
 
Riff 8 (Solo Rhythm)              x3 
e|---------------------------------| 
B|-----3-0-------------1-----------| 
G|---------0---------3---3---------| 
D|-----------3-0---3-------3-------| 
A|---2-----------1-----------------| 
E|-3-------------------------0-1-2-| 
   * *     * * * * * *       * * *  
e|------------------0--------0--------| 
B|-----3-0------------0--------0------| 
G|---------0--------------------------| 
D|-----------3------------------------| 
A|---2----------2-1------1-0------0-2-| 
E|-3------------3-2------2-1------1-0-| 
   * *     * * 
 
Solo 
e|------------7-10p7-----------6-10p6-13-| 
B|----------8--------8-------8-----------| 
G|--------7------------7---7-------------| 
D|------9----------------9---------------| 
A|---------------------------------------| 
E|-7-10----------------------------------| 
 
e|-------------10-13p10----------13-18p13-13-| 
B|----------11----------11----15-------------| 
G|-------10----------------15----------------| 
D|-12-12-------------------------------------| 
A|-------------------------------------------| 
E|-------------------------------------------| 
 
e|--19-19b20~~---15-----------------------20b22~~--{20}22~~-| 
B|------------------15-17b18r17b18r17-15--------------------| 
G|----------------------------------------------------------| 
D|----------------------------------------------------------| 
A|----------------------------------------------------------| 
E|----------------------------------------------------------| 
 
e|---24b25-24b25--24b25--{24}25r24-24~~-| 
B|-x------------------------------------| 
G|-x------------------------------------| 
D|--------------------------------------| 
A|--------------------------------------| 
E|--------------------------------------| 
 
e|----24-22-18----------------------| 
B|-20----------20-------------------| 
G|----------------19----------------| 
D|-------------------20-19----------| 
A|-------------------------22-------| 
E|----------------------------22-18-| 
 
e|-------------------------------------------| 
B|-------------------------------------------| 
G|-----12-12-12--14-14-14-15-15-15-17-17-17-| 
D|-------------------------------------------| 
A|-10--10-10-10--12-12-12-13-13-13-15-15-15-| 
E|-------------------------------------------| 
 
e|-------------18----------------------------| 
B|-/18--15h18-----18p15----15h18p15----------| 
G|----------------------18----------18p17p15-| 
D|-------------------------------------------| 
A|-------------------------------------------| 
E|-------------------------------------------| 
 
e|-------------------------------18b21-| 
B|-18p15-15----------------------------| 
G|----------18p17p15----18-17p15-------| 
D|-------------------17----------------| 
A|-------------------------------------| 
E|-------------------------------------| 
 
End solo 
 
 
Riff 7b 
e|------------------------------5-----| 
B|------------------------------h-5---| 
G|--------------------------------h-5-| 
D|-----1/2---4-----5--5-5-5-5-5-----h-| 
A|-2-------2-----3-3--3-3-3-3-3-------| 
E|-0-----------0----------------------| 
               *      * * * * *  
e|-------------------0--------0-------| 
B|---------------------0--------0-----| 
G|------------------------------------| 
D|-----1/2---4------------------------| 
A|-2-------2-----2-1------1-0-----0-2-| 
E|-0-----------0-3-2------2-1-----1-0-| 
 
 
Play Riff 7a  "They killed my wife..." 
Play Riff 8   Solo Rhythm 
 
Solo 
e|--------------------------------| 
B|-x------------------------------| 
G|-x-5b7--(7)r5-3---3-------------| 
D|----------------5---5-3---------| 
A|------------------------5-3-----| 
E|----------------------------6~~-| 
 
e|--------------------------------------------------| 
B|-------------------------6--8-6h8p6----8----------| 
G|-5-3/5-5-5-5b7~~-----5-7-------------7---10b12r10-| 
D|-------------------5------------------------------| 
A|--------------------------------------------------| 
E|--------------------------------------------------| 
 
e|------------------------------------------------------| 
B|-----------------------------------15-18b20~~--15--18-| 
G|-7--10--10b12~~-----------------15--------------------| 
D|--------------------------15-17-----------------------| 
A|-----------------------17-----------------------------| 
E|-----------------12/19--------------------------------| 
 
e|-------22-18-17----------18-15--------------| 
B|-18b19----------1815-18-------18-15--------| 
G|-------------------------------------18-19--| 
D|--------------------------------------------| 
A|--------------------------------------------| 
E|--------------------------------------------| 
 
e|---20b24-----15-------------------------------------| 
B|-x--------------18b20~------------------------------| 
G|-x----------------------15/17-17/18-1817-17b20~~\-| 
D|----------------------------------------------------| 
A|----------------------------------------------------| 
E|----------------------------------------------------| 
 
End solo 
 
 
Riff 9 (Play 2x) 
e|-------------------------| 
B|-------------------------| 
G|-------------------------| 
D|-------------------------| 
A|-------------------------| 
E|-3-3-3-3-333-3-3-333-333-| 
   h h h h hhh h h hhh hhh  
e|-----------------------------------------| 
B|-----------------------------------------| 
G|-----------------------------------------| 
D|-----------------------------------------| 
A|---5---4/5---4-----4/5-----54-----4/5-2-| 
E|-0-3-0-2/3-0-2-0-0-2/3-0-0-32-0-0-2/3-0-| 
   *   *     *   * *     * *     * *  
e|-------------------------| 
B|-------------------------| 
G|-------------------------| 
D|-------------------------| 
A|-------------------------| 
E|-3-3-3-3-333-3-3-333-333-| 
   h h h h hhh h h hhh hhh  
e|-----------------------------------------| 
B|-----------------------------------------| 
G|-----------------------------------------| 
D|-----------------------------------------| 
A|---2---1/2---1-----1/2-----21-----1/2-2-| 
E|-0-3-0-2/3-0-2-0-0-2/3-0-0-32-0-0-2/3-0-| 
   *   *     *   * *     * *     * *  
 
 
Riff 10 (Solo Rhythm) 
e|-------------------------| 
B|-------------------------| 
G|-------------------------| 
D|-------------------------| 
A|-------------------------| 
E|-0-0-0-0-000-0-0-000-000-| 
   * * * * *** * * *** *** 
e|-----------------------------------------| 
B|-----------------------------------------| 
G|-----------------------------------------| 
D|-----------------------------------------| 
A|---5---4/5---4-----4/5-----54-----4/5-2-| 
E|-0-3-0-2/3-0-2-0-0-2/3-0-0-32-0-0-2/3-0-| 
   *   *     *   * *     * *     * *  
e|-------------------------| 
B|-------------------------| 
G|-------------------------| 
D|-------------------------| 
A|-------------------------| 
E|-0-0-0-0-000-0-0-000-000-| 
   * * * * *** * * *** *** 
e|-----------------------------------------| 
B|-----------------------------------------| 
G|-----------------------------------------| 
D|-----------------------------------------| 
A|---2---1/2---1-----1/2-----21-----1/2-2-| 
E|-0-3-0-2/3-0-2-0-0-2/3-0-0-32-0-0-2/3-0-| 
   *   *     *   * *     * *     * *  
 
Final time: 
e|---------------------------------------| 
B|---------------------------------------| 
G|---------------------------------------| 
D|---------------------------------------| 
A|---2---1/2---1-----1/2-----21-----1/2-| 
E|-0-3-0-2/3-0-2-0-0-2/3-0-0-32-0-0-2/3-| 
   *   *     *   * *     * *     * *  
 
Solo 
e|-17b18-----17b18-----17b18--17b18--17b18--17b18-| 
B|------------------------------------------------| 
G|------------------------------------------------| 
D|------------------------------------------------| 
A|------------------------------------------------| 
E|------------------------------------------------| 
 
e|-17p15p12----12-------------------------------------| 
B|----------17----17-12-17p15p12-17p15p12-17p15p12----| 
G|-------------------------------------------------15-| 
D|----------------------------------------------------| 
A|----------------------------------------------------| 
E|----------------------------------------------------| 
 
e|--------------------------------------------| 
B|-12-----------------------------------------| 
G|----15p14p12-15p14p12-15-15p14p12----12-----| 
D|----------------------------------14-----14-| 
A|--------------------------------------------| 
E|--------------------------------------------| 
 
e|-----------------------------------------------| 
B|-----------------------------------------------| 
G|-----------------------------------------------| 
D|-13--12-14p13p12-------13p12-------12----------| 
A|-----------------14-14-------14p13----14p13p12-| 
E|-----------------------------------------------| 
 
e|------------------------------------------| 
B|------------------------------------------| 
G|------------------------------------------| 
D|------------------------------------------| 
A|-14p13p12----13p12-x--12-------12----12---| 
E|----------15-------------15-15----15----0-| 
 
e|---------------------------------| 
B|---------------------------------| 
G|---------------------------------| 
D|---------------------------------| 
A|---------------------------------| 
E|-3/5-5h8p5-5--8-5--8-5--5-4-3-5/-| 
 
e|------------------------------------------| 
B|------------------------------------------| 
G|---------------------x--------------------| 
D|-/9--7--9h12p9-12h14-x--12/14-14p12-12h14-| 
A|------------------------------------------| 
E|------------------------------------------| 
 
e|-------------------------------------------------------| 
B|----------------------------12h13-12h15p12-15-15-17-15-| 
G|-12h14-12h14-15-14p12-14-12----------------------------| 
D|-------------------------------------------------------| 
A|-------------------------------------------------------| 
E|-------------------------------------------------------| 
 
e|----------------15h17----------12h15h17-----------| 
B|-12-17p12-15h17-------12h15h17-----------12h15h17-| 
G|--------------------------------------------------| 
D|--------------------------------------------------| 
A|--------------------------------------------------| 
E|--------------------------------------------------| 
 
e|-12h15h17-----------12h15h17-----------12h15h17--12-17-| 
B|-----------12h15h17-----------12h15h17-----------------| 
G|-------------------------------------------------------| 
D|-------------------------------------------------------| 
A|-------------------------------------------------------| 
E|-------------------------------------------------------| 
 
e|-17b18r17---12-17p15p12--12----------12-------| 
B|----------------------------15p12-12----15p12-| 
G|----------------------------------------------| 
D|----------------------------------------------| 
A|----------------------------------------------| 
E|----------------------------------------------| 
 
e|--------------------------0-0-0-0--1-0-0--1-0-0-| 
B|------------------------------------------------| 
G|-15-15-14-12------------------------------------| 
D|-------------15-15-14-12-----------------------| 
A|------------------------------------------------| 
E|------------------------------------------------| 
 
e|-------------------------------------------------| 
B|-15-12----12-15-12-17-12----12-15-12-17-12----12-| 
G|-------15----------------15----------------15----| 
D|-------------------------------------------------| 
A|-------------------------------------------------| 
E|-------------------------------------------------| 
 
e|----------------------------------------------------| 
B|-17-12----12-15-12-17-17p12----12-15-12-17-12----12-| 
G|-------15-------------------15----------------15----| 
D|----------------------------------------------------| 
A|----------------------------------------------------| 
E|----------------------------------------------------| 
 
e|-------------------------------------------------| 
B|-17-12----12-15-12-17-12----12-15-12-17-12----12-| 
G|-------15----------------15----------------15----| 
D|-------------------------------------------------| 
A|-------------------------------------------------| 
E|-------------------------------------------------| 
 
e|------------------------------------------------| 
B|15-12-12-12-17-12-12-12-15-12-12-12-17-12-12-12-| 
G|------------------------------------------------| 
D|------------------------------------------------| 
A|------------------------------------------------| 
E|------------------------------------------------| 
 
e|-------------------------------------------------------| 
B|-15p12-12-12-17-12-12-12-15p12-12h15-12-12-17-12-12-12-| 
G|-------------------------------------------------------| 
D|-------------------------------------------------------| 
A|-------------------------------------------------------| 
E|-------------------------------------------------------| 
 
e|-12-------------12-------------12----------| 
B|----15p12----12----15p12----12----15p12----| 
G|----------15-------------15-------------15-| 
D|-------------------------------------------| 
A|-------------------------------------------| 
E|-------------------------------------------| 
 
e|-------12-------------12--------------------12-| 
B|----12----15p12----12----15p12------x-12-12----| 
G|-15-------------15-------------15-x------------| 
D|-----------------------------------------------| 
A|-----------------------------------------------| 
E|-----------------------------------------------| 
 
e|-12p10-------12p10-------12p10-------12p10-------| 
B|-------12----------12----------12----------12----| 
G|----------12----------12----------12----------12-| 
D|-------------------------------------------------| 
A|-------------------------------------------------| 
E|-------------------------------------------------| 
 
e|-13p11-------13p11-------13p11-------13p11--------| 
B|-------13----------13----------13----------13-----| 
G|----------13----------13----------13----------/14-| 
D|--------------------------------------------------| 
A|--------------------------------------------------| 
E|--------------------------------------------------| 
 
e|-14p12-------14p12-------14p12-------14p12--------| 
B|-------14----------14----------14----------14-----| 
G|----------14----------14----------14----------14/-| 
D|--------------------------------------------------| 
A|--------------------------------------------------| 
E|--------------------------------------------------| 
 
e|-15p13-------15p13----15-13-------15p13----16-| 
B|-------15----------15-------15----------15----| 
G|----------15-------------------15-------15----| 
D|----------------------------------------------| 
A|----------------------------------------------| 
E|----------------------------------------------| 
 
e|-16p14----x-16p14----x-17p15----18-| 
B|-------16-x-------16-x-------17----| 
G|-----------------------------------| 
D|-----------------------------------| 
A|-----------------------------------| 
E|-----------------------------------| 
 
e|-18p16-x-18-18p16-x-21-19-17-x-x-x----22b24-| 
B|-------x----------x----------x-x-x-19-------| 
G|--------------------------------------------| 
D|--------------------------------------------| 
A|--------------------------------------------| 
E|--------------------------------------------| 
 
e|-22b24-----22b24--22b24--22b25--22b24--22b24----| 
B|------------------------------------------------| 
G|------------------------------------------------| 
D|------------------------------------------------| 
A|------------------------------------------------| 
E|----------------------------------------------0-| 
 
End Solo 
 
 
Riff 11 (Play 4x) 
e|----------------------------------------| 
B|----------------------------------------| 
G|----------------------------------------| 
D|----------------------------------------| 
A|-5h7-----10p7---------5h7-----5h7-----9-| 
E|-----000------0-0-0-0-----000-----0-0-7-| 
       ***      * * * *     ***     * *  
  "Fill the cracks in ..." 
 
 
Riff 11a 
Guitar 1                                x10 
e|----------------------------------------| 
B|----------------------------------------| 
G|----------------------------------------| 
D|----------------------------------------| 
A|-5h7-----10p7---------5h7-----5h7-----9-| 
E|-----000------0-0-0-0-----000-----0-0-7-| 
       ***      * * * *     ***     * *  
  "Next thing you know..." 
 
e|----------------------------------| 
B|----------------------------------| 
G|--------------------------8-----7-| 
D|----------------------------------| 
A|-5h7-----10p7---------6-9---5-8---| 
E|-----000------0-0-0-0-------------| 
       ***      * * * * 
                    "...mercy...." 
 
Guitar 2 (Play 2x) 
e|--------------------------------------------| 
B|--------------------------------------------| 
G|--------------------------------------------| 
D|----12----------12----14--------------------| 
A|-10----10----10----12----------14-----------| 
E|----------12-------------12-11----10--/12~~-| 
 
e|----------------------------------------------| 
B|----------------------------------------------| 
G|----------------------------------------------| 
D|----12----------12-------13--------12---------| 
A|-10----10----10-------------------------------| 
E|----------12-------11-14-----10-13----10/12~~-| 
 
 
Riff 12 
e|----------------------------------------| 
B|----------------------------------------| 
G|----------------------------------------| 
D|----------------------------------------| 
A|-5h7-----10p7---------5h7-----5h7-----9-| 
E|-----000------0-0-0-0-----000-----0-0-7-| 
       ***      * * * *     ***     * *  
   "Killings...                    ...mercy..." 
e|----------------------------------------| 
B|----------------------------------------| 
G|----------------------------------------| 
D|----------------------------------------| 
A|-5h7-----10p7---------5h7-----5h7-----9-| 
E|-----000------0-0-0-0-----000-----000-7-| 
       ***      * * * *     ***     ***  
   "...killings...                  ...mercy..." 
 
 
Riff 13 
e|---------------------------------------------| 
B|---------------------------------------------| 
G|---------------------------------------------| 
D|---------------------------------------------| 
A|-5h7-----10p7----------5h7-----10p7----------| 
E|-----000------0000000------000------0000000--| 
       ***      *******      ***      ******* 
  "...killings...     ...killings..." 
e|----------------------------------------| 
B|----------------------------------------| 
G|----------------------------------------| 
D|----------------------------------------| 
A|-5h7-----10p7----------5h7-----10p7-----| 
E|-----000------00000000-----000------000-| 
       ***      ********     ***      *** 
  "...killings...     ...killings..." 
 
 
Riff 14 
e|---------------------------------| 
B|---------------------------------| 
G|---------------------------------| 
D|---------------------------------| 
A|-5---4/5---4-----4/5-----54-----| 
E|-3-0-2/3-0-2-0-0-2/3-0-0-32-0-0-| 
     *     *   * *     * *     * *  
e|---------------------------------| 
B|---------------------------------| 
G|---------------------------------| 
D|---------------------------------| 
A|-2---1/2---1-----1/2-----21-----| 
E|-3-0-2/3-0-2-0-0-2/3-0-0-32-0-0-| 
     *     *   * *     * *     * *  
e|-----------------------------------| 
B|-----------------------------------| 
G|-----------------------------------| 
D|-----------------------------------| 
A|-5---4/5---4-----4/5-----54-----4-| 
E|-3-0-2/3-0-2-0-0-2/3-0-0-32-0-0-2-| 
     *     *   * *     * *     * *  
   "Next thing you know, they'll take..." 
 
e|--------------| 
B|--------------| 
G|--------------| 
D|--------------| 
A|-5-6-7-----2--| 
E|-------5-3-0--| 
  "...away!"

Que te parecio? Calificalo con estrellas!!

Rating: 8.3/10 (303 votos)

Este fichero es trabajo propio de su transcriptor y representa su interpretación personal de la canción. El material contenido en esta página es para exclusivo uso privado, por lo que se prohibe su reproducción o retransmisión, así como su uso para fines comerciales.


Comentario de franco_maiden
una de las mejores canciones de megadeth cualquier duda q tengan pueden consultarme a [email protected] AGUANTE MEGADETH Y IRON MAIDEN
Deja tus comentarios:
Letras de canciones | Musica Independiente