Acordes y tablaturas para guitarra

Acordes y Tablaturas
Usuario: Password:

Buscar:
Acordes y Tablaturas >> Letra T >> Acordes de The Beatles >> Day Tripper
Tablatura de Day Tripper, The Beatles

Day Tripper

The Beatles






DAY TRIPPER

E------------------------------------------------------------
B--------------------------------------------repeat----------
G---------------------------------------------seven----------
D------------2--0-------4------0-2------------times---------
A----------2---------2--------2------------------------------
E-0----3-4---------------------------------------------------

E-----------------------------------
B-----------------------------------
G------------2--0-------4-----0-2---
D----------2---------2-------2------
A-0----3-4--------------------------
E-----------------------------------

E-----------------------------------
B-----------------------------------
G-----------------------------------
D------------2--0-------4------0-2--
A----------2---------2-------2------
E-0----3-4--------------------------




E-|2| repeat  E-|5| repeat E-|4| repeat E-|x| repeat E-|x| repeat
B-|2| sixteen B-|5| four   B-|4| four   B-|6| four   B-|4| four 
G-|3| times   G-|6| times  G-|5| times  G-|6| times  G-|4| times
D-|2|         D-|7|        D-|4|        D-|6|        D-|4|
A-|4|         A-|7|        A-|6|        A-|4|        A-|2|
E-|2|         E-|5|        E-|4|        E-|x|        E-|x|




E------------------------------------
B------------------------------------  repeat
G------------------------------------  four 
D------------2--0-------4------0-2---  times
A----------2---------2--------2------
E-0----3-4---------------------------


E-----------------------------------
B-----------------------------------
G------------2--0-------4-----0-2---
D----------2---------2-------2------
A-0----3-4--------------------------
E-----------------------------------


E------------------------------------
B------------------------------------  
G------------------------------------  
D------------2--0-------4------0-2---  
A----------2---------2--------2------
E-0----3-4---------------------------




E-|2| repeat  E-|5| repeat E-|4| repeat E-|x| repeat E-|x| repeat
B-|2| sixteen B-|5| four   B-|4| four   B-|6| four   B-|4| four 
G-|3| times   G-|6| times  G-|5| times  G-|6| times  G-|4| times
D-|2|         D-|7|        D-|4|        D-|6|        D-|4|
A-|4|         A-|7|        A-|6|        A-|4|        A-|2|
E-|2|         E-|5|        E-|4|        E-|x|        E-|x|


Solo:

E---------------------------------- repeat
B---------------------------------- three
G---------------------------------- times
D-----------7-5----9----5-7--------
A---------7------7----7------------
E-5---8-9--------------------------



E-------------------5---------
B---2/5--3--5--5(7)--(7)5--3--
G------4----------------------
D-----------------------------
A-----------------------------
E-----------------------------

E-------10---10---12--12(14)-12--10-----
B-12-12----12-----------------------12--
G---------------------------------------
D---------------------------------------
A---------------------------------------
E---------------------------------------

End Solo


E------------------------------------
B------------------------------------  repeat
G------------------------------------  four 
D------------2--0-------4------0-2---  times
A----------2---------2--------2------
E-0----3-4---------------------------


E-----------------------------------
B-----------------------------------
G------------2--0-------4-----0-2---
D----------2---------2-------2------
A-0----3-4--------------------------
E-----------------------------------


E------------------------------------
B------------------------------------  
G------------------------------------  
D------------2--0-------4------0-2---  
A----------2---------2--------2------
E-0----3-4---------------------------


E-|2| repeat  E-|5| repeat E-|4| repeat E-|x| repeat E-|x| repeat
B-|2| sixteen B-|5| four   B-|4| four   B-|6| four   B-|4| four 
G-|3| times   G-|6| times  G-|5| times  G-|6| times  G-|4| times
D-|2|         D-|7|        D-|4|        D-|6|        D-|4|
A-|4|         A-|7|        A-|6|        A-|4|        A-|2|
E-|2|         E-|5|        E-|4|        E-|x|        E-|x|



E------------------------------------ repeat  On 9th 
B------------------------------------ nine    repeat
G------------------------------------ times   fade out
D------------2--0-------4------0-2---  
A----------2---------2--------2------
E-0----3-4---------------------------

Que te parecio? Calificalo con estrellas!!

Rating: 8.3/10 (121 votos)

Este fichero es trabajo propio de su transcriptor y representa su interpretación personal de la canción. El material contenido en esta página es para exclusivo uso privado, por lo que se prohibe su reproducción o retransmisión, así como su uso para fines comerciales.


Deja tus comentarios:

Letras de The Beatles
Letras de canciones | Musica Independiente