Enviado por: xNathaaan
Agrandar Letra
Reducir Letra
Imprimir











Michael Jackson, Billie Jean

G------------------
D-4---2-4-2--------
A---4-------4-2-4--
E------------------

G-4---2-4-2--------
D---4-------4-2-4--
A------------------
E------------------
Aviso: Este fichero es trabajo propio de su transcriptor y representa su interpretación personal de la canción. El material contenido en esta página es para exclusivo uso privado, por lo que se prohibe su reproducción o retransmisión, así como su uso para fines comerciales.

Califica esta canción


Comentarios en Facebook