Acordes y tablaturas para guitarra

Acordes y Tablaturas
Usuario: Password:

Buscar:
Acordes y Tablaturas >> Letra E >> Acordes de Eric Clapton >> Sunshine Of Your Love
Tablatura de Sunshine Of Your Love, Eric Clapton

Sunshine Of Your Love

Eric Clapton






Sunshine Of Your Love

T: D  

Riff # 1 
e|------------------------------
b|------------------------------
g|------------------------------
d|-------------7-6-5----3~------
a|-----5-5-3-5-----5--5----5----
e|------------------------------

Este RIFF aparece varias veces en la rola, escucha donde se usa

VERSO 1
D            C    D
It's getting near dawn
     D            C     D
When lights close their tired eyes
     D       C    D
I'll soon be with you my love
D        C  D
give you my dawn's surprise
     G       F   G
I'll be with you darlin', soon
     G       F   G
I'll be with you when the stars start falling   D   C  D

Coro
A             C     G     A
I've been waiting so long
           C      G
To be where I'm goin'
A         C       G     A      D   C  D
In the sunshine of your love

2ndo Verso
    D        C  D
I'm with you my love
    D         C   D
The light shining through on you
         D        C  D
Yes, I'm with you my love
         D       C   D
It's the morning and just we two

Riff # 2
e|------------------------------
b|------------------------------
g|------------------------------
d|-----------------3------------
a|-------------5-4-3----1~------
e|-----3-3-1-3--------3---3-----

     G         F   G
I'll stay with you darlin', now
     G         F   G                             D   C  D
I'll stay with you till my seas are all dried up
 
CORO
 
Solo de guitarra:

E-------------------------------------------------------|
B---------------------------12--------------------------|
G----12--12B~~~~------12-14----12B--12B--12--12B~~~~----|
D-------------------------------------------------------|
A-------------------------------------------------------|
E-------------------------------------------------------|

E-------------------------------------------------------|
B------------------------10B----------------------------|
G---9b--(9)--7--9---7-----9B-------7~~~-----------------|
D-------------------------------------------------------|
A-------------------------------------------------------|
E-------------------------------------------------------|

E-------------------------------------------------------|
B-------------10B--10B--10B-----------------------------|
G-------7h9----9B---9B---9B---(9)---7h9p7---7~~~--------|
D---7h9-------------------------------------------------|
A-------------------------------------------------------|
E-------------------------------------------------------|

E-------------------------------------------------------------|
B-------------------------------------------------------------|
G-10Bb--10Bb--10Bb-10Bb-10~~~-10Bb-----9Bb-----7----9B--------|
D-----------------------------------11------9-----------------|
A-------------------------------------------------------------|
E-------------------------------------------------------------|


E--------------------------------------------------------------|
B--------------------------------------------------------------|
G-----7h9-10------7--9B--9Bb--9b--7--9--7h9--7~~~--------------|
D-7h9---------9------------------------------------------------|
A--------------------------------------------------------------|
E--------------------------------------------------------------|


E--------------------------------------------------------------|
B11/13---------------------------------------------------------|
G12/14--12-10-11----10-------------10h11~~~--------------------|
D----------------12------12-10-12------------------------------|
A--------------------------------------------------------------|
E--------------------------------------------------------------|

E-10-----------------------------------------------------------|
B-10----------------13-----------------------------13----------|
G----10----10-12B------12b-(12)12--10------10--12B----12-10~~~-|
D-------12------------------------------12---------------------|
A--------------------------------------------------------------|
E--------------------------------------------------------------|

E--------10---------------------------------------------------------|
B-----10------------------------------------------------------------|
G-12B---------12b---(12)p10-----10-------------------------10----10-|
D---------------------------12------12---------10----10-10h12-10h12-|
A---------------------------------------12--10h12-10h12-------------|
E-------------------------------------------------------------------|


E---------------------------------------------------------------------------|
B-10--12--------13----13--13h15--13---------------------------13--15B-13-15-|
G-10--12--12/14----14----------------1412-10-12p10-12B-12/14---------------|
D---------------------------------------------------------------------------|
A---------------------------------------------------------------------------|
E---------------------------------------------------------------------------|


E-13----------------------------------------------------------------------|
B-13-13---------------------------13131313--------------------------------|
G-------1412-10----1012p10-12/14----------1412-10bb---------------------|
D----------------12-----------------------------------12p10----10h12~~~~--|
A-----------------------------------------------------------12------------|
E-------------------------------------------------------------------------|

3r Verso
    D        C  D
I'm with you my love
    D         C   D
The light shining through on you  hoo.
         D        C  D
Yes, I'm with you my love
         D       C   D
It's the morning and just we two
     G         F   G
I'll stay with you darlin' now
     G         F   G                             D  C  D
I'll stay with you till my seas are all dried up.

Coro
Bajas volumen

Que te parecio? Calificalo con estrellas!!

Rating: 4.6/10 (30 votos)

Este fichero es trabajo propio de su transcriptor y representa su interpretación personal de la canción. El material contenido en esta página es para exclusivo uso privado, por lo que se prohibe su reproducción o retransmisión, así como su uso para fines comerciales.


Deja tus comentarios:

Letras de Eric Clapton
Letras de canciones | Musica Independiente