Enviado por: armandoman
Agrandar Letra
Reducir Letra
Imprimir


Otras Versiones de Las Cosas Mas Bonitas:









Magnolia Y Los No Me Olvides, Las Cosas Mas Bonitas

Intro:
        C             G            Am         F        G
e|--0-1-3-1-0--|-------------|----0-1-0----|-1----|--0--------|
B|-------------|--0-1-3-1-0--|--3-------3--|---1--|----3-1-3--| x 2 veces
G|-------------|-------------|-------------|------|-----------|


Aquí va una parte komo de acordeón pero casi no se oie y va asi.

Verso 1:
E|-0--1-3--1-0----3--1-0----1-3--1-0----3--1-0----0----------
B|-------------1---------1-----------1---------1----3-1-0----
G|-----------------------------------------------------------

E|-----0-1-0-----------0--------------|
B|-1-3-------3-1-0--1----3--1-0-1-----|
G|------------------------------------|

Después sigue de nuevo el intro
        C             G            Am          F        G
e|--0-1-3-1-0--|-------------|----0-1-0----|-1----|--0--------|
B|-------------|--0-1-3-1-0--|--3-------3--|---1--|----3-1-3--| x 2 veces
G|-------------|-------------|-------------|------|-----------|

VERSO 2:
E|-0--1-3--1-0----3--1-0----1-3--1-0----3--1-0----0----------
B|-------------1---------1------------1--------1----3-1-0----
G|---------------------------------------------------------

E|-----0-1-0-----------0--------------|
B|-1-3-------3-1-0--1----3--1-0-1-----|
G|------------------------------------|

SOLO:
E|----0-------------0-1-0------------0-------------0-1-0---------
B|-1----3--1-0--1-3-------3-1--0--1----3--1-0--1-3-------3-1-0---
G|---------------------------------------------------------------

E|-0---------0---------1--3-1-0----0-1-3-1-0----|
B|----3-1--3----3-1--3----------3------------3--|
G|----------------------------------------------|

VERSO 3:
E|----0-------------0-1-0------------0-------------0-1-0---------
B|-1----3--1-0--1-3-------3-1--0--1----3--1-0--1-3-------3-1-0---
G|---------------------------------------------------------------

E|----0-------------0-1-0------------0------------|
B|-1----3--1-0--1-3-------3-1--0--1----3--1-0-1---|
G|------------------------------------------------|

e|--0-1-3-1-0--|-------------|----0-1-0----|-1----|--0----------|
B|-------------|--0-1-3-1-0--|--3-------3--|---1--|----3-1-3-1--|
G|-------------|-------------|-------------|------|-------------|


Las Cosas Mas Bonitas

Intro
C - G - Am - F - G
C - G - Am - F - G

Intro de piano:
        C             G            Am         F        G
e|--0-1-3-1-0--|-------------|----0-1-0----|-1----|--0--------|
B|-------------|--0-1-3-1-0--|--3-------3--|---1--|----3-1-3--|
G|-------------|-------------|-------------|------|-----------|


C                  G                      Am
  Espero Que Esta Vez Ya No Me Necesites Más
                     F       G        C
  Pues Yo Hice Una Lista Y Tu No Estas
                    G                       Am
  Una Lista De Las Cosas Que Me Han Salido Bien
                 F       G        F
  Y De Las Más Bonitas Creo También.

    F         G         C   Em    Am   Em
    Seeeeeeeeee Que Darías Por Estar
F         G          C
    Matarías Por Estar.


(esta parte es igual que la primera)

Esta Es Otra Lista De La Cosas Que Estan Mal
Tu Nombre Aparece Un Poco Más
Ni Siquiera Se Donde Esta Lista Acabara
Pues En El Basurero Nada Más.

Se Lo Que Darías Por No Estar
Matarías Por No Estar.

(esta parte es de la armonica o acordion)

C - Em - Am - F - G
C - Em - Am - F - G
Em - Am - Em - Am
F - G - F - G <--- (aqui se apaga el acorde
y empieza el coro de nuevo en F)

Se Lo Que Darías Por Estar
Y Se Lo Que Darías Por Estar
Y Se Lo Que Darías Por Estar
Matarías Por Estar.


ya es todo por mi parte espero que les guste JOSE ARMANDO ORTÍZ CORTINA "RUBIA"
Aviso: Este fichero es trabajo propio de su transcriptor y representa su interpretación personal de la canción. El material contenido en esta página es para exclusivo uso privado, por lo que se prohibe su reproducción o retransmisión, así como su uso para fines comerciales.

Califica esta canción


Comentarios en Facebook