Enviado por:
Daniel Caisson

Reik, Me Duele Amarte

Hola esta es mi primera canción que subo así que espero que les guste !!

El tema es Me Duele Amarte de Reik? el tema esta en Do# así que tienen que poner capoteaste en el primer traste. Yo se las anoto como si no uviene capoteaste pero ustedes ponganle el capo !

El ritmo te esta cancion es como el de yo quisiera ser:

2 veses para abajo, asemos como un freno y otra ves para abajo

         
[MI]   1-/\-------/\------/\------/\-----
[SI]   2-|--------|-------|-------|------ 
[SOL]  3-|--------|-------|-------|------
[RE]   4-|--------|------_/_------|-----
[LA]   5-|--------|-------|-------|------
[MI]   6-|--------|-------|-------|------
            Abajo abajo  freno abajo  

INTRO


         
1----------0---------0/1------------------------------------------------------------------------
2?2----------2------------1-----------------1-----0--------------------0------1/3------------3--                               
3------0---------------------------------2------------------------0---------------------1-------
4-----------------------------------2------------------------2-----------------3---3------------
5?3-----------------------0-------------------------2-------------------------------------------
6--------------3-----------------------------------------------------------------------------1--

1] ------------------------|-----0-0?1?0-0-0------
2] --3/5---3---------1-----|-----1-1?1?3-1-1------
3] ------------------------|-----0-0?0?0-0-0------
4] ------------------------|-----2-2?2?2-2-2------
5] ------------------3-----|----------------------
6] ------------------------|----------------------



              C
Me Duele Amarte
       G              Am
Sabiendo Que ya Te perdi
      Em                F
Tan Solo Quedara la Lluvia
                C                   G
Mojando mi Llanto y me hablara de ti
             C
Me Duele Amarte
       G                 Am
Los Sueños Que eran para ti
        Em                F
Se pierden con cada palabra
             C                     G
Con cada Momento que espere de Vivir...
           Am
Me duele mas imaginar
           Em
Que tu te vas y dejaras
          F                         G
Detras de ti, Tu ausencia en mis brazos
           Am
Me Duele Tanto sospechar
            Em
Que ni tu sombra Volvera
                   F           G
Para abrigar mi alma en pedazos...

                    Coro
      C       G    Am    Em      F
Me duele amarte asi, hasta morir
                 C               G
lansandome a la nada viendote partir
      C     G       Am     Em      F
Me duele aquel abril, cuando te vi
                   C                  G
por vez primera y dije que eras para Mi 
                 C
me duele amarte tanto...
Aviso: Este fichero es trabajo propio de su transcriptor y representa su interpretación personal de la canción. El material contenido en esta página es para exclusivo uso privado, por lo que se prohibe su reproducción o retransmisión, así como su uso para fines comerciales.
comentario del colaborador: SE LA DEDICO A AYLU QUE LA AMO CON TODA MI ALMA AILEN TIZIANA ROGRIGUEZ TE RE AMO DANIEL LEANDRO CAISSON

Califica esta canción


Comentarios en Facebook