Enviado por: moonchild
Agrandar Letra
Reducir Letra
Imprimir



Iron Maiden, The Evil That Men Do

the evil that men do                                                   ^                             
G---------------------------------------------|------------------------------
D----9----7----5----7----5----5-7-9----7----5-|*-----------------------------
A----7----5----3----5----3----3-5-7----5----3-|*-7-777-777-777-777-777-777-77
E---------------------------------------------|------------------------------
                                                                                
   Intro
                                                                                
                                        ^
G------------------------------------|----------------------------------------
D-----------------------------------*|*--------------------------------------
A7-777-333-333-333-333--3-----------*|*-777-777-777-777-333-333-333-333------
E-------------------------5-3-5-3-5--|----------------------------------333-3

         4 times (third time            \"But I will pray...
                 lyrics enters)


                               ^                                      ^
G----------------------------|--------------------------------------|--------
D---------------------------*|-------------------10-9-7---------7---|--------
A-----------555-555-555-555-*|-777-777-777-777----------10-9-10---3-|-333-333
E33-333-333------------------|--------------------------------------|--------

                     2 times                                          \"Living


G----------------------------------------------------------------------------
D----------------------------------------------------------------------------
A-333-333-333-333-5-7-777-777-777-777-777-777-777-5-555-555-555-555-555-555-5
E----------------------------------------------------------------------------

  on the ...


G----------------------------------------------------------------------------
D----------------------------------------------------------------------------
A55-3-333-333-333-333-333-333-333-5-555-555-555-555-555-555-555-7-777-777-777
E----------------------------------------------------------------------------




G---------------------------------------------------------------------------|
D---------------------------------------------------------------------------|
A-777-777-777-777-5-555-555-555-555-555-555-555-3-333-333-333-5-555-555-555-|
E---------------------------------------------------------------------------|



      ^
G|---------------------------------------------------------------------------
D|*--------------------------------------------------------------------------
A|*-7-777-777-777-777-777-777-777-3-333-333-333-5-555-555-555-7-777-777-777-7
E|---------------------------------------------------------------------------

  (chorus) \"The evil that...

                                                  ^
G--------------------------------------------|-------------------------------
D-------------------------------------------*|*------------------------------
A77-777-777-777-3-333-333-333---------------*|*-7-777-777-777-777-777-777-777
E-----------------------------5-555-555-555--|-------------------------------
                            
                                      2 times   \"Circle of fire, my....

                                       ^
G-----------------------------------|----------------------------------------
D----------------------------------*|*---------------------------------------
A-777-333-333-333-333--3-----------*|*-777-777-777-777-333-333-333-333-------
E------------------------5-3-5-3-5--|----------------------------------333-33

                             2 times   \"But I will pray...
                 
                              ^                                      \"***\"
G---------------------------|--------------------------------------|---------
D--------------------------*|-------------------10-9-7---------7---|---------
A----------555-555-555-555-*|-777-777-777-777----------10-9-10---3-|-333-333-
E3-333-333------------------|--------------------------------------|---------

                     2 times                                          \"Living


G----------------------------------------------------------------------------
D----------------------------------------------------------------------------
A-333-333-333-333-5-7-777-777-777-777-777-777-777-5-555-555-555-555-555-555-5
E----------------------------------------------------------------------------


                            \"!!!\"                                     ^
G-------------------------------|                |---------------------------
D-------------------------------|                |---------------------------
A55-3-333-333-333-5-555-555-555-|(chorus 2 times)|-7------7-7-------7-777-777
E-------------------------------|                |---------------------------

                                                   Pre solo (here is a fast
                                                             figure I havenït
                                                             done)
G----------------------------------------------------------------------------
D----------------------------------------------------------------------------
A-777-777-777-777-777-3-333-333-333-5-555-555-555-7-777-777-777-777-777-777-7
E----------------------------------------------------------------------------


                                     ^
G-------------------------------|--------------------------------------------
D-------------------------------|*-------------------------------------------
A77-3-333-333-333---------------|*-9-999-999-999-999-999-999-999-5-555-555-55
E-----------------5-555-555-555-|--------------------------------------------

                                  Solo

                      ^
G-----------------|----------------------------------------------------------
D----------------*|----------------------------------------------------------
A5-7-777-777-777-*|-9-999-999-999-999-999-999-999-5-555-555-555-2-222-222-222
E-----------------|----------------------------------------------------------

           3 times                                                (solo ends)
Aviso: Este fichero es trabajo propio de su transcriptor y representa su interpretación personal de la canción. El material contenido en esta página es para exclusivo uso privado, por lo que se prohibe su reproducción o retransmisión, así como su uso para fines comerciales.

Califica esta canción


Comentarios en Facebook