Acordes y tablaturas para guitarra

Acordes y Tablaturas
Usuario: Password:

Buscar:
Acordes y Tablaturas >> Letra S >> Acordes de Slash >> Batalla Contra Slash
Tablatura de Batalla Contra Slash, Slash

Batalla Contra Slash

Slash






-------------------------------------------------------------------------------
			    Batalla contra SLASH gh3
-------------------------------------------------------------------------------
Tablatura por: xeliitthox
Email:   [email protected]
Gtr I (E A D G B E) - 'Untitled'
Gtr II (E A D G B E) - 'Untitled'
Gtr III (E A D G B E) - 'Untitled'

FREETIME


 4/4
  Gtr I
         ~~~
   E S S H.       S S S S E.  S S S S S S S S S W
|----0---------------------------------------------------|
|------0-3b5------2-3-2-0-2b3r0-2p0----------------------|
|-/4--------------------------------2p0-2p0--------------|
|-------------------------------------------2p0-2--------|
|--------------------------------------------------------|
|--------------------------------------------------------|
|
| Gtr II
|--------------------------------------------------------|
|--------------------------------------------------------|
|--------------------------------------------------------|
|--------------------------------------------------------|
|--------------------------------------------------------|
|--------------------------------------------------------|


|------------------------------------------------------------------|
|------------------------------------------------------------------|
|------------------------------------------------------------------|
|------------------------------------------------------------------|
|------------------------------------------------------------------|
|------------------------------------------------------------------|
|
|                                                          ~~~~~
|  S  S  S  Q      S  Q      S  S  S  E     S  S  S  S  S  H.
|-------12--------15--------12-------------------------------------|
|----------15b17-----15b17-----15p12----------------------15b17----|
|-12-14------------------------------14b15r12-14-12----------------|
|---------------------------------------------------14-12----------|
|------------------------------------------------------------------|
|------------------------------------------------------------------|


    E  Q   E  Q  E  E  S  S  S  E  E  E  E  E E  H
|---------------------------------------------------------|
|---------------------------------------------------------|
|-----14-----16----17----18----17----16----14---12b13.5r==|
|-/11----/12----14----14----14----12----11----9-----------|
|---------------------------------------------------------|
|---------------------------------------------------------|
|
|---------------------------------------------------------|
|---------------------------------------------------------|
|---------------------------------------------------------|
|---------------------------------------------------------|
|---------------------------------------------------------|
|---------------------------------------------------------|


|--------------------------------------------------------------------|
|--------------------------------------------------------------------|
|--------------------------------------------------------------------|
|--------------------------------------------------------------------|
|--------------------------------------------------------------------|
|--------------------------------------------------------------------|
|
|                                       |--3--|  |--3--|
|  Q.       S  S  S  S  Q      S  S  S  S  S  S  S  S  S  S  S  H
|-15b17.5r=12----12--------------------------------------------------|
|-------------15----12-15b19r=12----15-12h15p12----12----------------|
|--------------------------------14-------------15----15-14-12-14b16-|
|--------------------------------------------------------------------|
|--------------------------------------------------------------------|
|--------------------------------------------------------------------|


   Q.    S  S  H
|-15-------------------|-----------------------------------------------------|
|-12b14----------------|-----------------------------------------------------|
|-------14-16-12b13r===|=====================================================|
|----------------------|-----------------------------------------------------|
|----------------------|-----------------------------------------------------|
|----------------------|-----------------------------------------------------|
|
|                                                                      ~~~
|                         E     S  S  S  E     S  S  S  S  S  Q  S  S  W
|----------------------|-------12--------------------------------------------|
|----------------------|-15b17----15-12----------------------12--------------|
|----------------------|----------------14b16r12-14p12-------12--------------|
|----------------------|----------------------------------------14p12-14\----|
|----------------------|-------------------------------12h14-----------------|
|----------------------|-----------------------------------------------------|


tempo=120
                                 |-3-|
  S S S S S S S S S +Q..         S S S S S E S   E     S S S S S S S
|------------------------------|--------------------------------------|
|---------8--------------------|--------------------------------------|
|-7h9-9-9---9-9-7h9-(9)--------|-7h9p7---7----------------------------|
|------------------------------|-------9---9-9---7b8r==5-7-5-7-5------|
|------------------------------|---------------------------------7-5--|
|------------------------------|--------------------------------------|
|
|------------------------------|--------------------------------------|
|------------------------------|--------------------------------------|
|------------------------------|--------------------------------------|
|------------------------------|--------------------------------------|
|------------------------------|--------------------------------------|
|------------------------------|--------------------------------------|
|
| Gtr III
| E   E   E   S E    S   E E E         E E E S E S   E E     E
|------------------------------|--------------------------------------|
|------------------------------|--------------------------------------|
|------------------------------|--------------------------------------|
|------------------------------|--------------------------------------|
|---------5--------------------|-----------5--------------------------|
|-0---0---3---0-0----0---0-6-7-|-------0-0-3-0-0-0---0-6-----7--------|


  H
|-----------------------------------|
|-----------------------------------|
|-----------------------------------|
|-----------------------------------|
|-7---------------------------------|
|-----------------------------------|
|
| E   S S E   S E   S E   S E     S
|-----0-------0-----0-----0-------0-|
|-------3-3b5---3b5---3b5---3b5-----|
|-3b4-------------------------------|
|-----------------------------------|
|-----------------------------------|
|-----------------------------------|
|
| E   E   E   S E   S E   E     E
|-----------------------------------|
|-----------------------------------|
|-----------------------------------|
|-----------------------------------|
|---------5-------------------------|
|-0---0---3---0-0---0-0---6-----7---|


|--------------------------------------------------|
|--------------------------------------------------|
|--------------------------------------------------|
|--------------------------------------------------|
|--------------------------------------------------|
|--------------------------------------------------|
|
|                    |-----6-----|   |----6----|
| +S  E   E E     S  S S   S S S S   S S S S S S
|-(0)-----0-------0--------------------------------|
|-----3b5---3b5------2h3p==2---------3p2-----------|
|----------------------------4-3h4-------4p3p2p0---|
|--------------------------------------------------|
|--------------------------------------------------|
|--------------------------------------------------|
|
|     E   E     E    S   E         S E     E     E
|--------------------------------------------------|
|--------------------------------------------------|
|--------------------------------------------------|
|--------------------------------------------------|
|---------------5----------------------------------|
|-----0---0-----3----0---0---------0-0-----6-----7-|


  ~           ~~                                  ~~
  E S E.      Q.   S S S S   S S  S S S S  E  S a E. +Q
|--------------------------|------------------------------|
|-5-8----------------------|------------------------------|
|-6---6b7r====9------------|------------------------------|
|------------------7-5-4---|-5-4--------------------------|
|------------------------7-|------7-5-7-5--7--5-5-7--(7)--|
|--------------------------|------------------------------|
|
| ~
| a H            H             H.          E. S
|--------------------------|------------------------------|
|--------------------------|------------------------------|
|-0-2----------------------|--------------/7--9-----------|
|--------------------------|------------------------------|
|--------------------------|------------------------------|
|--------------------------|------------------------------|
|
|   E E   E S E    S E E E   E E  E S E S  E  E       E
|--------------------------|------------------------------|
|--------------------------|------------------------------|
|--------------------------|------------------------------|
|---------5----------------|------5-----------------------|
|---0-0---3-0-0----0-0-6-7-|-0-0--3-0-0-0--0--6-------7---|
|--------------------------|------------------------------|


|-----------------------------------------------------|
|-----------------------------------------------------|
|-----------------------------------------------------|
|-----------------------------------------------------|
|-----------------------------------------------------|
|-----------------------------------------------------|
|
| |----6----| |-----6-----| |-----6-----| |----6----|
| S S S S S S S S S S S   S S S   S S S S S S S S S S
|-----------------------------------------------------|
|-8-7h8p7-----8-7h8p7-------8-7h==8p7-----8-7h8p7-----|
|---------9-6---------9---6-----------9-6---------9-6-|
|-----------------------------------------------------|
|-----------------------------------------------------|
|-----------------------------------------------------|
|
| E     E     E     S   E       S   E     E     E
|-----------------------------------------------------|
|-----------------------------------------------------|
|-----------------------------------------------------|
|-----------------------------------------------------|
|-------------5---------------------------------------|
|-0-----0-----3-----0---0-------0---0-----6-----7-----|


|-------------------------------|
|-------------------------------|
|-------------------------------|
|-------------------------------|
|-------------------------------|
|-------------------------------|
|
|                            ~
| |----6----|   |---6---|
| S S S S S S   S S S S E    H
|-------------------------------|
|-8-7h8p7-------8-7h8p7-8b10-8--|
|---------9-6-------------------|
|-------------------------------|
|-------------------------------|
|-------------------------------|
|
| E     E     E S E S E E    E
|-------------------------------|
|-------------------------------|
|-------------------------------|
|-------------------------------|
|-------------5-----------------|
|-0-----0-----3-0-0-0-0-6----7--|


  Q   S S S S E.      S S S S S   H                 H
|-------------------------------|---------------------------------|
|-3-------------------0---------|---------------------------------|
|-----4-4-2-4-3b4-------2-0---0-|-2b4r============================|
|---------------------------2---|---------------------------------|
|-------------------------------|---------------------------------|
|-------------------------------|---------------------------------|
|
|                                 H        E.    S  E     S S
|-------------------------------|---------------10----------------|
|-------------------------------|---------10b12----10pb12r8-------|
|-------------------------------|---------------------------9-----|
|-------------------------------|---------------------------------|
|-------------------------------|---------------------------------|
|-------------------------------|---------------------------------|
|
| E E E S E       S E   E   E     E   E E  S     E        S E E E
|-------------------------------|---------------------------------|
|-------------------------------|---------------------------------|
|-------------------------------|---------------------------------|
|-----4-----------------4---4---|-------2---------------------2-2-|
|-2-2-2-2-2-------2-2---2---2---|-0---0-0--0-----0--------0-0-0-0-|
|-------------------------------|---------------------------------|


                                     H                   E   S  S  S  E  S
|----------------------------------|---------------------------------------|
|----------------------------------|---------------------------------------|
|----------------------------------|-------------------------9----12--9----|
|----------------------------------|-------------------/11-----11-------11-|
|----------------------------------|---------------------------------------|
|----------------------------------|---------------------------------------|
|
|                                                        ~~~~~
| S S S S S S S S S S S  S S S S S   E   S   S S S S S   H
|----------------------------------|---------------------------------------|
|-8--------------------------------|---------------------------------------|
|---9-7---9-7-----7----------------|---------------------3b4---------------|
|-------9-----9-7---9-7\-5-7-5-----|-7b8r5-----7-8-7-5---------------------|
|------------------------------7-5-|---------7-----------------------------|
|----------------------------------|---------------------------------------|
|
| E   E   S E   S E   E    E   E     E     E   S E   S   E   E     E
|----------------------------------|---------------------------------------|
|----------------------------------|---------------------------------------|
|----------------------------------|---------------------------------------|
|----------------------------------|---------------------------------------|
|-----5----------------------------|-------5-------------------------------|
|-0---3---0-0---0-0---6----7---0---|-0-----3---0-0---0---0---6-----7-------|


|----------------------------------------|------------------------|
|----------------------------------------|------------------------|
|----------------------------------------|------------------------|
|----------------------------------------|------------------------|
|----------------------------------------|------------------------|
|----------------------------------------|------------------------|
|
|                                                   ~
|                   |--3--|
| Q    S S  S S  S  S  S  S S  S S  S  S   S  S E E H   +E
|----------------------------------------|------------------------|
|-8b9r===================================|========================|
|-----11p9----9-12-11h12p11-9----9-12----|-9-11-9-7s9---(9)-------|
|----------11-----------------11------11-|------------------------|
|----------------------------------------|------------------------|
|----------------------------------------|------------------------|
|
| E    E E  S E  S  E  E  E                E  E E   S E  S  E E E
|----------------------------------------|------------------------|
|----------------------------------------|------------------------|
|----------------------------------------|------------------------|
|----------------------------------------|------------------------|
|--------5-------------------------------|------5-----------------|
|-0----0-3--0-0--0--0--6--7--------------|-0--0-3---0-0--0--0-6-7-|


|--------------------------------------|
|--------------------------------------|
|--------------------------------------|
|--------------------------------------|
|--------------------------------------|
|--------------------------------------|
|
| S S S a S S S S S S S S S S S S S
|--------------------------------------|
|--------------------------------------|
|-------------------------7---9---7----|
|-----------5---7---5-8S9---9---9------|
|-------5S7---7---7--------------------|
|-0-3-4--------------------------------|
|
| E   E     E       S E   S E   E   E
|--------------------------------------|
|--------------------------------------|
|--------------------------------------|
|--------------------------------------|
|-----------5--------------------------|
|-0---0-----3-------0-0---0-0---5---6--|


|--------------------------------------------------|
|--------------------------------------------------|
|--------------------------------------------------|
|--------------------------------------------------|
|--------------------------------------------------|
|--------------------------------------------------|
|
| S  S S  S  S  S  S  S  S     S  S  S  S  S  E
|--------------------------------------------------|
|--------------------------------------------14----|
|------9-------12----14-12b13----------------14----|
|-9/11---11/14----14----------14-12----12-14-------|
|-----------------------------------14-------------|
|--------------------------------------------------|
|
|    E    E     E     S  E     S  E           E E
|--------------------------------------------------|
|--------------------------------------------------|
|--------------------------------------------------|
|--------------------------------------------------|
|---------------5----------------------------------|
|----0----0-----3-----0--0-----0--0-----------5-6--|


         |---3---|        |----3----|          |---3---|        |---3---|
   E     S    S  S  E     S    S    S  E       S    S  S  E     S    S  S
|-------------------------------------------------------------------------|
|-------12---15-12-------12---15---12---------12---15-12-------12---15-12-|
|-14b16------------14b16--------------14b16--------------14b16------------|
|-------------------------------------------------------------------------|
|-------------------------------------------------------------------------|
|-------------------------------------------------------------------------|
|
|  ~~~~~
|  H                                   H
|-------------------------------------------------------------------------|
|-12----------------------------------------------------------------------|
|-12----------------------------------------------------------------------|
|-------------------------------------------------------------------------|
|-------------------------------------------------------------------------|
|-------------------------------------------------------------------------|
|
|  E       E        E       S    E          S    E        E       E
|-------------------------------------------------------------------------|
|-------------------------------------------------------------------------|
|-------------------------------------------------------------------------|
|-------------------5-----------------------------------------------------|
|--0-------0--------3-------0----0----------0----0--------6-------7-------|
|-------------------------------------------------------------------------|


   |---3----|        |---3----|
   S     S  S  S  S  S     S  S  H                 E
|----------12----------------12-------------------------------|
|-------12----15-12-------12----------------------------------|
|-14b16-------------14b16-------14b16-------------------------|
|-------------------------------------------------------------|
|-------------------------------------------------------------|
|-------------------------------------------------------------|
|
|                                                  |--3--|
|  H.                                        E     S  S  S
|-------------------------------------------------12-15-12----|
|-------------------------------------------15b17-------------|
|-------------------------------------------------------------|
|-------------------------------------------------------------|
|-------------------------------------------------------------|
|-------------------------------------------------------------|
|
|  E           E     E           S    E S E  E     E
|-------------------------------------------------------------|
|-------------------------------------------------------------|
|-------------------------------------------------------------|
|--------------------5----------------------------------------|
|--0-----------0-----3-----------0----0-0-0--6-----7----------|
|-------------------------------------------------------------|


|-----------------------------------------------------------------------|
|-----------------------------------------------------------------------|
|-----------------------------------------------------------------------|
|-----------------------------------------------------------------------|
|-----------------------------------------------------------------------|
|-----------------------------------------------------------------------|
|
|        |--3--|        |---3---|        |---3---|        |--3--|
|  E     S  S  S  S     S  S    S  S     S  S    S  E     S  S  S  S  S
|-------12-15-12-------12-15---12-------12-15---12-------12-15-12-------|
|-15b17----------15b17------------15b17------------15b17----------15-12-|
|-----------------------------------------------------------------------|
|-----------------------------------------------------------------------|
|-----------------------------------------------------------------------|
|-----------------------------------------------------------------------|
|
|  E     E        E          S     E          S     E     E        E
|-----------------------------------------------------------------------|
|-----------------------------------------------------------------------|
|-----------------------------------------------------------------------|
|-----------------------------------------------------------------------|
|-----------------5-----------------------------------------------------|
|--0-----0--------3----------0-----0----------0-----0-----6--------8----|


         H.                                    Q
|---------------------------------------------------------------------|
|---------------------------------------------13b15-------------------|
|---------------------------------------------------------------------|
|---------------------------------------------------------------------|
|---------------------------------------------------------------------|
|---------------------------------------------------------------------|
|
|        |---3----|              |---3---|
|  S     S   S    S  S  S  S     S  S    S  S  S     S  S  S  S  E
|-------12--15---12---------------------------------------------------|
|-------------------15-12-------12-15---12----------------------------|
|-14b16-------------------14b16------------14-12-------12-14-12-14----|
|---------------------------------------------------14----------------|
|---------------------------------------------------------------------|
|---------------------------------------------------------------------|
|
|  E           E        E        S    E        S     E     E     E
|---------------------------------------------------------------------|
|---------------------------------------------------------------------|
|---------------------------------------------------------------------|
|---------------------------------------------------------------------|
|-----------------------5---------------------------------------------|
|--0-----------0--------3--------0----0--------0-----0-----6-----8----|


                 ~~
   +Q.     S  S  H                    H.        E.          S
|----------------------------|---------------------------------------------|
|-(13)b15-10-12--------------|-----------------13b15-------15--------------|
|---------------12-----------|---------------------------------------------|
|----------------------------|---------------------------------------------|
|----------------------------|---------------------------------------------|
|----------------------------|---------------------------------------------|
|
|   Q                           E     S   S  S  E     S  S  S  S  S  E.  S
|----------------------------|-------12------------------------------------|
|----------------------------|-15b17-----15-12-----------------------------|
|--14b16---------------------|-----------------14b16r12-14-12-------12--12-|
|----------------------------|---------------------------------------------|
|----------------------------|--------------------------------12-14--------|
|----------------------------|---------------------------------------------|
|
|   E      E  E  S E S E E E    E     E   E  S  E     S  E  E            E
|----------------------------|---------------------------------------------|
|----------------------------|---------------------------------------------|
|----------------------------|---------------------------------------------|
|-------------4----------4-4-|------------2-----------------2------------2-|
|---2------2--2--2-2-2-2-2-2-|--0-----0---0--0--0-----0--0--0------------0-|
|----------------------------|---------------------------------------------|


   S  S  S   S  S  S  S  S  S  S  S  S  S  S  S  S
|--------------------------------------------------|
|-12-----------------------------------------------|
|----14-12-----------12----14-12-------------------|
|-----------14-12-14----14-------14-12-------------|
|--------------------------------------14-12-------|
|--------------------------------------------15-12-|
|
|        ~~~
|  S  S  H.                                   E
|--------------------------------------------------|
|--------------------------------------------------|
|--------------------------------------------------|
|-14-12-14-----------------------------------------|
|--------------------------------------------------|
|--------------------------------------------------|
|
|  E     E      E     S  E     S  E     E     E
|--------------------------------------------------|
|--------------------------------------------------|
|--------------------------------------------------|
|--------------------------------------------------|
|---------------5----------------------------------|
|--0-----0------3-----0--0-----0--0-----6-----7----|


   S  S  S  S  S  S  S  S   Q  E  S  S
|----------------------------------------|
|----------------------------------------|
|----------------------------------------|
|-----------------------------12----12---|
|-12-14-12-10-12-10-------/14----14------|
|-------------------12-10----------------|
|
|----------------------------------------|
|----------------------------------------|
|----------------------------------------|
|----------------------------------------|
|----------------------------------------|
|----------------------------------------|
|
|  E     E     E     S  E      S  E  E E
|----------------------------------------|
|----------------------------------------|
|----------------------------------------|
|----------------------------------------|
|--------------5-------------------------|
|--0-----0-----3-----0--0------0--0--6-7-|


   Q     S  S  S  S  S  Q.   S    S  S   S  E.    S  S  E     S  Q
|------------------------------|--------12-------------------------------|
|------------------------------|-----------15b17-12----------------------|
|-12b13-------------12---------|-12-13--------------14-14b16r12-14b16----|
|-------14-14-12-------14------|-----------------------------------------|
|----------------14------------|-----------------------------------------|
|------------------------------|-----------------------------------------|
|
|                                    H.                 S     S  S     S
|------------------------------|--------------------------------------12-|
|------------------------------|--------------------------------12-------|
|------------------------------|-----------------------12----13----------|
|------------------------------|-----------------------------------------|
|------------------------------|-----------------------------------------|
|------------------------------|-----------------------------------------|
|
|  E     E  E  S  E  S  E  E E    E  E   E  S     E  S  E     E        E
|------------------------------|-----------------------------------------|
|------------------------------|-----------------------------------------|
|------------------------------|-----------------------------------------|
|------------------------------|-----------------------------------------|
|-----------5------------------|---------5-------------------------------|
|--0-----0--3--0--0--0--0--6-7-|--0--0---3--0-----0--0--0-----6--------7-|


|--------------------------------------------------|
|--------------------------------------------------|
|--------------------------------------------------|
|--------------------------------------------------|
|--------------------------------------------------|
|--------------------------------------------------|
|
|           |--3--|  |--3--|
|  E.    S  S  S  S  S  S  S  S  S  S  S  E.     S
|-------12-----------------------------------------|
|-15b17----15-12----14-15-14-12-14-12-----------15-|
|----------------14-------------------14-14b16-----|
|--------------------------------------------------|
|--------------------------------------------------|
|--------------------------------------------------|
|
|  E     E  E  S  E  S  E  E  E
|--------------------------------------------------|
|--------------------------------------------------|
|--------------------------------------------------|
|--------------------------------------------------|
|-----------5--------------------------------------|
|--0-----0--3--0--0--0--0--6--7--------------------|


          H      H
|-------------------------------|
|---------------15b17r==========|
|-------------------------------|
|-------------------------------|
|-------------------------------|
|-------------------------------|
|
|  Q        H           E  S  S
|-------------------------------|
|-------------------------12-14-|
|-14b16-------------------------|
|-------------------------------|
|-------------------------------|
|-------------------------------|
|
|  E    E E S E  S    E E     E
|-------------------------------|
|-------------------------------|
|-------------------------------|
|-------------------------------|
|---------5---------------------|
|--0----0-3-0-0--0----0-6-----7-|


   ~~                                                                  ~~
   H                             Q  E     S  S  S       S  S  S  S  S  E
|------------------------------|------------12---------------------------|
|-14---------------------------|---------12----15------12----------------|
|------------------------------|---14b16------------------14-12-------12-|
|------------------------------|--------------------------------14-12----|
|------------------------------|-----------------------------------------|
|------------------------------|-----------------------------------------|
|
|                       ~~~~~
|  S  S  S  S  S  S  E  H           H.          Q
|-12----15-12-------12---------|---------------15b17.5r==================|
|----14-------12-14----15b17---|-----------------------------------------|
|------------------------------|-----------------------------------------|
|------------------------------|-----------------------------------------|
|------------------------------|-----------------------------------------|
|------------------------------|-----------------------------------------|
|
|  E  E  E  S  E  S  E  E    E   E  E     E  S  E       S  E  E        E
|------------------------------|-----------------------------------------|
|------------------------------|-----------------------------------------|
|------------------------------|-----------------------------------------|
|--------5---------------------|----------5------------------------------|
|--0--0--3--0--0--0--0--6----7-|-0--0-----3--0--0-------0--0--6--------7-|
|------------------------------|-----------------------------------------|


                                     |------6-------|
   Q.  S  S  S  S  Q         S  S    S  S  S  S  S  S  S  S  S  S  H
|-15--12--------------------------|----------------------------------|
|--------12-15-12-17b19.5r==12----|-15-12-15-12----12----------------|
|------------------------------14-|-------------15----15-14-12-14-16-|
|---------------------------------|----------------------------------|
|---------------------------------|----------------------------------|
|---------------------------------|----------------------------------|
|
|---------------------------------|----------------------------------|
|---------------------------------|----------------------------------|
|---------------------------------|----------------------------------|
|---------------------------------|----------------------------------|
|---------------------------------|----------------------------------|
|---------------------------------|----------------------------------|
|
|  E   E  E  S  E  S      E  E  E    E  E  E  S  E  S  E  E        E
|---------------------------------|----------------------------------|
|---------------------------------|----------------------------------|
|---------------------------------|----------------------------------|
|---------------------------------|----------------------------------|
|---------5-----------------------|--------5-------------------------|
|--0---0--3--0--0--0------0--6--7-|--0--0--3--0--0--0--0--6--------7-|


   |---3---|     |---3---|     |---3---|
   S    S  S  S  S  S    S  S  S  S    S  S  Q..
|-19---17-15----19-17---15----19-17---15-17-19b22-----------|
|------------17------------17-------------------------------|
|-----------------------------------------------------------|
|-----------------------------------------------------------|
|-----------------------------------------------------------|
|-----------------------------------------------------------|
|
|  H..                                                 S  S
|-----------------------------------------------------------|
|-----------------------------------------------------------|
|-----------------------------------------------------12-14-|
|-----------------------------------------------------------|
|-----------------------------------------------------------|
|-----------------------------------------------------------|
|
|  E          E       E        S    E        S    E E  E
|-----------------------------------------------------------|
|-----------------------------------------------------------|
|-----------------------------------------------------------|
|---------------------4-----------------------------4--4----|
|--2----------2-------2--------2----2--------2----2-2--2----|
|-----------------------------------------------------------|


|---------------------------------------------|
|---------------------------------------------|
|---------------------------------------------|
|---------------------------------------------|
|---------------------------------------------|
|---------------------------------------------|
|
|  E  E.      S  S  S  E     S  S  S  S  S  S
|-12---------12-------------------------------|
|----15b17------15-12-------------------------|
|---------------------14b16r12----14-12-------|
|------------------------------14-------14-12-|
|---------------------------------------------|
|---------------------------------------------|
|
|  E  E    E     S  E  S     E  E     E
|---------------------------------------------|
|---------------------------------------------|
|---------------------------------------------|
|----------2--------------------2-----2-------|
|--0--0----0-----0--0--0-----0--0-----0-------|
|---------------------------------------------|


                   ~~
   S      S  S  S  H
|------------------------------------|-----------------------------|
|------------------------------------|-----------------------------|
|------------------------------------|-----------------------------|
|-14-----12-------14-----------------|-----------------------------|
|-----------14-12--------------------|-----------------------------|
|------------------------------------|-----------------------------|
|
|  Q               Q      Q      Q      S  S  S  E     S  E  H
|-17pb19r=========15-----12----------|-12--------------------------|
|-------------------------------15---|----15-12--------------------|
|------------------------------------|----------14b16r12----12-----|
|------------------------------------|-------------------14--------|
|------------------------------------|-----------------------------|
|------------------------------------|-----------------------------|
|
|  E         E     E S E    S E  E E    E  E  E  S     E  S  E E E
|------------------------------------|-----------------------------|
|------------------------------------|-----------------------------|
|------------------------------------|-----------------------------|
|------------------------------------|-----------------------------|
|------------------5-----------------|--------5--------------------|
|--0---------0-----3-0-0----0-0--6-7-|--0--0--3--0-----0--0--0-6-7-|


|----------------------------------------------------------------------|
|----------------------------------------------------------------------|
|----------------------------------------------------------------------|
|----------------------------------------------------------------------|
|----------------------------------------------------------------------|
|----------------------------------------------------------------------|
|
|  |--3--|     |---3---|     |---3---|     |---3---|     |--3--|
|  S  S  S  S  S  S    S  S  S  S    S  S  S  S    S  S  S  S  S  S
|-19-17-15----19-17---15----19-17---15----19-17---15----19-17-15-------|
|----------17------------17------------17------------17----------17----|
|----------------------------------------------------------------------|
|----------------------------------------------------------------------|
|----------------------------------------------------------------------|
|----------------------------------------------------------------------|
|
|  E        E       E        S    E        S    E        E        E
|----------------------------------------------------------------------|
|----------------------------------------------------------------------|
|----------------------------------------------------------------------|
|----------------------------------------------------------------------|
|-------------------5--------------------------------------------------|
|--0--------0-------3--------0----0--------0----0--------6--------7----|


         H          Q.        S                S
|---------------------------------------------18--------|
|-------------------------------------------------------|
|-------------------------------------------------------|
|-------------------------------------------------------|
|-------------------------------------------------------|
|-------------------------------------------------------|
|
|  |--3--|     |---3----|     |---3---|
|  S  S  S  S  S  S     S  S  S  S    S  +H
|-19-17-15----19-17----15----19-17---15-(15)\-----------|
|----------17-------------17----------------------------|
|-------------------------------------------------------|
|-------------------------------------------------------|
|-------------------------------------------------------|
|-------------------------------------------------------|
|
|  E        E       E         S    E           S E E E
|-------------------------------------------------------|
|-------------------------------------------------------|
|-------------------------------------------------------|
|-------------------------------------------------------|
|-------------------5-----------------------------------|
|--0--------0-------3---------0----0-----------0-0-6-7--|


    |--3---|     |---3---|     |---3---|     |---3---|     |--3--|
   +S   S  S  S  S  S    S  S  S  S    S  S  S  S    S  S  S  S  S  S
|-(18)-17-15----18-17---15----18-17---15----18-17---15----18-17-15-------|
|------------17------------17------------17------------17----------17----|
|------------------------------------------------------------------------|
|------------------------------------------------------------------------|
|------------------------------------------------------------------------|
|------------------------------------------------------------------------|
|
|------------------------------------------------------------------------|
|------------------------------------------------------------------------|
|------------------------------------------------------------------------|
|------------------------------------------------------------------------|
|------------------------------------------------------------------------|
|------------------------------------------------------------------------|
|
|   E         E       E        S    E        S    E        E        E
|------------------------------------------------------------------------|
|------------------------------------------------------------------------|
|------------------------------------------------------------------------|
|------------------------------------------------------------------------|
|---------------------5--------------------------------------------------|
|---0---------0-------3--------0----0--------0----0--------6--------7----|


   |--3--|     |---3---|     |---3---|   |----3----|
   S  S  S  S  S  S    S  S  S  S    S   E      E  E  S  S  E
|-18-17-15----18-17---15----18-17---15--17-----17-17-17-15-------|
|----------17------------17--------------------------------17----|
|----------------------------------------------------------------|
|----------------------------------------------------------------|
|----------------------------------------------------------------|
|----------------------------------------------------------------|
|
|                 H                      H
|---------------------------------------17pb19r==================|
|----------------------------------------------------------------|
|----------------------------------------------------------------|
|----------------------------------------------------------------|
|----------------------------------------------------------------|
|----------------------------------------------------------------|
|
|  E        E       E        S    E      S         E        E E
|----------------------------------------------------------------|
|----------------------------------------------------------------|
|----------------------------------------------------------------|
|----------------------------------------------------------------|
|-------------------5--------------------------------------------|
|--0--------0-------3--------0----0------0---------0--------6-7--|


                                                                 |--3--|
                                            H..                  S  S  S
|----------------------------------|----------------------------15-14-12-----|
|----------------------------------|-----------------------------------------|
|----------------------------------|-----------------------------------------|
|----------------------------------|-----------------------------------------|
|----------------------------------|-----------------------------------------|
|----------------------------------|-----------------------------------------|
|
|  ~~                                                         ~~
|                    |--3--|
|  H          Q      S  S  S  S  S    S     S    S  S  S  E.  H
|-17---------15-----12-15-12----12-|-----------------------------------------|
|----------------------------15----|-------15------15------------------------|
|----------------------------------|-18b19------18----16-18--16--------------|
|----------------------------------|-----------------------------------------|
|----------------------------------|-----------------------------------------|
|----------------------------------|-----------------------------------------|
|
|  E E E S E    S E  E        E                     E  E  E   S  E  S  E E E
|----------------------------------|-----------------------------------------|
|----------------------------------|-----------------------------------------|
|----------------------------------|-----------------------------------------|
|------5---------------------------|----------------------5------------------|
|--0-0-3-0-0----0-0--6--------7----|----------------0--0--3---0--0--0--0-6-7-|
|----------------------------------|-----------------------------------------|


   |------6-------|  |-------6--------|  |-------6--------|  |------3-------|
   S  S  S  S  S  S  S  S  S  S  S    S  S  S    S  S  S  S  S  S  S  S  S  S
|----------15-14-12----------15-14---12------------15-14-12-------------------|
|-15-14-12----------15-14-12------------15-14---12----------15-14-12-15-14-12-|
|-----------------------------------------------------------------------------|
|-----------------------------------------------------------------------------|
|-----------------------------------------------------------------------------|
|-----------------------------------------------------------------------------|
|
|-----------------------------------------------------------------------------|
|-----------------------------------------------------------------------------|
|-----------------------------------------------------------------------------|
|-----------------------------------------------------------------------------|
|-----------------------------------------------------------------------------|
|-----------------------------------------------------------------------------|
|
|  E        E        E        S    E          S     E        E        E
|-----------------------------------------------------------------------------|
|-----------------------------------------------------------------------------|
|-----------------------------------------------------------------------------|
|-----------------------------------------------------------------------------|
|--------------------5--------------------------------------------------------|
|--0--------0--------3--------0----0----------0-----0--------6--------7-------|


   |-------6-------|  |-------6--------|   |--3--|
   S  S  S  S  S   S  S  S  S  S  S    S   S  S  S  S  S  E   E
|-------------------------------------------------------------------|
|----------15-14--12------------------------------------------------|
|-15-14-12-----------15-14-12-15-14---12--15-14-12-------12---------|
|--------------------------------------------------14-12-----14\----|
|-------------------------------------------------------------------|
|-------------------------------------------------------------------|
|
|              H.                             S     S     S   S
|------------------------------------------------------------12-----|
|--------------------------------------------------------12---------|
|--------------------------------------------12----13---------------|
|-------------------------------------------------------------------|
|-------------------------------------------------------------------|
|-------------------------------------------------------------------|
|
|  E        E         E        S    E      S  E  E  E
|-------------------------------------------------------------------|
|-------------------------------------------------------------------|
|-------------------------------------------------------------------|
|-------------------------------------------------------------------|
|---------------------5---------------------------------------------|
|--0--------0---------3--------0----0------0--0--6--7---------------|


|-------------------------------------------------------------------------|
|-------------------------------------------------------------------------|
|-------------------------------------------------------------------------|
|-------------------------------------------------------------------------|
|-------------------------------------------------------------------------|
|-------------------------------------------------------------------------|
|
|  |------6-------|  |------6-------|  |------6-------|  |------6-------|
|  S  S  S  S  S  S  S  S  S  S  S  S  S  S  S  S  S  S  S  S  S  S  S  S
|-12----------------------------------------------------------------------|
|----15-14-12-15-14-12----14-12-------12----------------------------------|
|----------------------14-------15-14----15-14-12-15-14-12----14-12-------|
|----------------------------------------------------------14-------14-12-|
|-------------------------------------------------------------------------|
|-------------------------------------------------------------------------|
|
|  E  E  E  S  E  S  E  E           E
|-------------------------------------------------------------------------|
|-------------------------------------------------------------------------|
|-------------------------------------------------------------------------|
|--------4--------------4-----------4-------------------------------------|
|--2--2--2--2--2--2--2--2-----------2-------------------------------------|
|-------------------------------------------------------------------------|


|----------------------------------------------------------------|
|----------------------------------------------------------------|
|----------------------------------------------------------------|
|----------------------------------------------------------------|
|----------------------------------------------------------------|
|----------------------------------------------------------------|
|
|  |------6-------|  |------6-------|
|  S  S  S  S  S  S  S  S  S  S  S  S  S  S  S  S  S  S  S  S
|----------------------------------------------------------------|
|----------------------------------------------------------------|
|-12-------------------------------------------------------------|
|----14-12----14-12----------------------------------------------|
|----------14-------14-13-12-14-13-12-12-13-12-13-12-10----------|
|-------------------------------------------------------12-10----|
|
|  E                          E  E  S  E  S  E  E             E
|----------------------------------------------------------------|
|----------------------------------------------------------------|
|----------------------------------------------------------------|
|--------------------------------2--------------2-------------2--|
|--0--------------------------0--0--0--0--0--0--0-------------0--|
|----------------------------------------------------------------|


    E.      S  E     E  E.      S  E     S  S    E.      S  E     H     E
|---------------------------------------------|----------------------------|
|----------15------------------15-------------|---------15-----------------|
|--14b16------14b16r12-14b16------14b16r12----|-14b16------14b16r16--------|
|------------------------------------------14-|----------------------------|
|---------------------------------------------|----------------------------|
|---------------------------------------------|----------------------------|
|
|   ~~~~~~
|   H.                             Q
|---------------------------------------------|----------------------------|
|---------------------------------------------|----------------------------|
|---------------------------------------------|----------------------------|
|-/14-----------------------------------------|----------------------------|
|---------------------------------------------|----------------------------|
|---------------------------------------------|----------------------------|
|
|   E    E     E     E  E    E     E     E       E    E     E     H    +E
|---------------------------------------------|----------------------------|
|---------------------------------------------|----------------------------|
|---------------------------------------------|----------------------------|
|---------------------------------------------|-------------------2----(2)-|
|---2----2-----5-----5--7----7-----8-----8----|--9----------5-----2----(2)-|
|---0----0-----3-----3--5----5-----6-----6----|--7----------3-----0----(0)-|


|--------------------------------------------------------------|
|--------------------------------------------------------------|
|--------------------------------------------------------------|
|--------------------------------------------------------------|
|--------------------------------------------------------------|
|--------------------------------------------------------------|
|
|        |--3--|        |--3--|  |---3----|           |--3--|
|  E.    S  S  S  E.    S  S  S  S     S  S  S  S     S  S  S
|-------12-------------12----------------12----------12--------|
|-15b17----15-12-15b17----15-12-------12----12-15b17----15-12--|
|-------------------------------14b16--------------------------|
|--------------------------------------------------------------|
|--------------------------------------------------------------|
|--------------------------------------------------------------|
|
| +W
|--------------------------------------------------------------|
|--------------------------------------------------------------|
|--------------------------------------------------------------|
|-(2)----------------------------------------------------------|
|-(2)----------------------------------------------------------|
|-(0)----------------------------------------------------------|


         |--3--|                                   |--3--|
   S     S  S  S  S  S  S  S  S  S     S  S  S  S  S  S  S  S
|-------12----------------------------------------------------|
|----------15-12----------------------------------------------|
|-14b16----------14-12----12-13-13b15r========================|
|----------------------14-------------14-14-12----------------|
|----------------------------------------------14-14-13-12----|
|----------------------------------------------------------15-|
|
|-------------------------------------------------------------|
|-------------------------------------------------------------|
|-------------------------------------------------------------|
|-------------------------------------------------------------|
|-------------------------------------------------------------|
|-------------------------------------------------------------|


  W
|-----------------------------------|
|-----------------------------------|
|-----------------------------------|
|-2---------------------------------|
|-2---------------------------------|
|-0---------------------------------|
|
|    |-----6-----| |-----6-----|
| H  S   S S E   S S   S S E   S
|----------0-----0-------0-----0----|
|--------0---3b5-------0---3b5------|
|----2b4-----------2b4--------------|
|-----------------------------------|
|-----------------------------------|
|-----------------------------------|


  |-----6-----|             |-3-|           |-3-|
  S   S S E   S S S E   S S S S S S S S S   S S S S S E E H
|-------0-----0---------------------------|--------------------|
|-----0---3b5---3-2---------0-3-0---------|--------------------|
|-2b4---------------2b3r0-2-------3-2-0---|--------------------|
|---------------------------------------2-|-0-2-0---------2----|
|-----------------------------------------|-------2-1-0---2----|
|-----------------------------------------|-------------3-0----|
|
|-----------------------------------------|--------------------|
|-----------------------------------------|--------------------|
|-----------------------------------------|--------------------|
|-----------------------------------------|--------------------|
|-----------------------------------------|--------------------|
|-----------------------------------------|--------------------|


FREETIME (use timing as a guideline)


     |----6-----|  |----6----| |----6----|     |----6----| |----3----|
   E S  S S S S S  S S S S S S S S S S S S S S S S S S S S S S S S S S
|----------------------------------------------------------------------|
|-10-8h10p8p7---8h10p7h8p7---------------------------------------------|
|-------------9------------9-6h7h9p7p6---6h7p6-----6-----6-----6-----6-|
|--------------------------------------8-------8h9---8h9---8h9---8h9---|
|----------------------------------------------------------------------|
|----------------------------------------------------------------------|


    |-3-|
  S S S S S S S S S S S E   W
|---------------------------0----|
|--------------------------------|
|--------------------------------|
|-8-7h8p7-5h7p5-----5h6----------|
|---------------7p5--------------|
|-----------------------0--------|


  Q=125
    |---5---| |----6----| |----6----| |----6----| |----6----| |----6----|
  E S S S S S S S S S S S S S S S S S S S S S S S S S S S S S S S S S S S
|--------------------------------------------------------------------------|
|--------------------------------------------------------------------------|
|---------------------------------------7-------4-------------4h6h7--------|
|-----------------4---------4h6h7p4h6h7---4h6h7---6h7p6p4h6h7-------6h7h9--|
|-----4h5h7p4-5h7---5h7-5h7------------------------------------------------|
|-5-7----------------------------------------------------------------------|


  |----6----| |-----6-----|  |-----5-----| |-----6-----| |----6----|
  S S S S S S S S S  S  S S  S  S  S  S  S S  S  S S S S S S S S S S
|----------------------10p9-12p10---------------------------------------|
|-------7h8p7---7h8h10------------12p10h12p8h12p10p7h8p7---7------------|
|-6h7h9-------9------------------------------------------9---9p7---7----|
|----------------------------------------------------------------9------|
|-----------------------------------------------------------------------|
|-----------------------------------------------------------------------|


                        ~
  |---5----|
  S S S  S S  S S  S  S H   W
|---------------------------------|
|---------------------------------|
|---------------------7S9---9\----|
|-9p8p7----7----------------------|
|-------10---10-7-----------------|
|-----------------10--------------|


                             |--3--|            |-3--|
   E.    E.    E    S  S  S  S  S  S S  S  S  S S  S S  S   E  S  S  S  S  a  E  S  S  a 
S  S  S
|---------------------------------------------------------------------------------|
|---------------------------------------------------------------------------------|
|-12b14-12b14-12b14r9----12-11h12p11p9----11----9h11p9--------12----14p12---------|
|---------------------12---------------12----12--------11/-14----14-------14s16---|
|---------------------------------------------------------------------------------|
|---------------------------------------------------------------------------------|

-------------------------------|
-------------------------------|
16p14-------18p16-------19p16--|
----16s17-------17s19-------19-|
-------------------------------|
-------------------------------|


      |--3--|        |--3--|                             |--3--|
   S  S  S  S  E.    S  S  S  E       S   S  S  S  S  S  S  S  S  S  E     S  S  S  S  S 
Q.   Q.
|----------------------------------------------12-12----12-15-12----17b19-17-15-|
|-------------------17-15-------------------15-------15----------15---------------|
|-19-16h19p16-19b21-------16-14b15.5r12-/16---------------------------------------|
|---------------------------------------------------------------------------------|
|---------------------------------------------------------------------------------|
|---------------------------------------------------------------------------------|

12----12------15b16r====|
-15----17-------------|
----------------------|
----------------------|
----------------------|
----------------------|


           |-----3-----|                  |---------6----------|  |--------6--------|  
 |--------6--------|
   Q.      Q     Q     Q     Q      S  S  S     S  S  S  S     S  S  S  S     S  S  S  S 
   S  S  S  S
|-12------12----12----12----12----------------------------------------------------|
|-15b17---15b17-15b17-15b17-15b17--15-12-------12h15p12-------12h15p12------------|
|----------------------------------------14b15----------14b15----------14b15------|
|---------------------------------------------------------------------------------|
|---------------------------------------------------------------------------------|
|---------------------------------------------------------------------------------|

--------------------------------------------------|
12h15p12-------12h15p12-------12h15p12-------12h15p12--|
----14b15----------14b15----------14b15-----------|
--------------------------------------------------|
--------------------------------------------------|
--------------------------------------------------|

                                                           Q=135
   |------5-------|        |--3--|  |------5-------|                                   |--3--|
   S     S  S  S  S  E     S  S  S  S     S  S  S  S  E     S  S  S  S  S  S  S  S  S  S 
S  S  S  S 
|----------12-------------12----------------12------------------------------------|
|-------12----15p12-15b17----15p12-------12----15p12------------------------------|
|-14b16----------------------------14b16-------------14b16r14-12----12------------|
|----------------------------------------------------------------14----14p12------|
|----------------------------------------------------------------------------14---|
|---------------------------------------------------------------------------------|

----------------------------------------0-|
----------------------------------------0-|
------------------------------------------|
14p12-------------------------------------|
----14p13p12-10-12-10-------12-11---------|
----------------------12-10-------12\-0---|


             Q=105
                  |-----7-----| |-----7-----| |-----7-----| |-----7-----|
   Q   H.     S S S S S S S S S S S S S S S S S S S S S S S S S S S S S S
|--------------------------------------------------------------------------|
|--------------------------------------------------------------------------|
|------2-------------------------------------------------------------------|
|------2-------------------------------------------------------------------|
|-12\--0----------4-5-7-4-5-4---4-5-7-4-5-4---4-5-7-4-5-4---4-5-7-4-5-4----|
|------------/5-7-------------7-------------7-------------7-------------7--|


  Q=120
  |----6----| |---5---| |----6----| |----6----|          |----6----|
  S S S S S S S S S S S S S S S S S S S S S S S S S E    S S S S S S
|---------------------------------------------5----------------------|
|-------------------------------------------5---8-5-8b10r7-5-8-7-5---|
|-----------------------------------5---5-6------------------------6-|
|---------4-5-4---4-5-7-5-4---4-5-7---7------------------------------|
|---4-5-7-------7-----------7----------------------------------------|
|-7------------------------------------------------------------------|


  |---5---|         |----6----| |-3-|
  S S S S S E     S S S S S S S S S S S S E   S S S S S S S S Q    W
|------------------------------------------------------------------0----|
|-5-7-5---5------------------

Que te parecio? Calificalo con estrellas!!

Rating: 7.9/10 (88 votos)

Este fichero es trabajo propio de su transcriptor y representa su interpretación personal de la canción. El material contenido en esta página es para exclusivo uso privado, por lo que se prohibe su reproducción o retransmisión, así como su uso para fines comerciales.


Deja tus comentarios:
Letras de canciones | Musica Independiente