Acordes y tablaturas para guitarra

Acordes y Tablaturas
Usuario: Password:

Buscar:
Acordes y Tablaturas >> Letra H >> Acordes de Helloween >> Power
Tablatura de Power, Helloween

Power

Helloween






Intro:
e:----------------------------------------------------------|
B:----------------------------------------------------------|
G:----------------------------------------------------------|
D:----------------------------------------------------------|
A:--7--7--7--7--7--5~--7--7--7--7--7--5~--7--7--7--7--7--5~-|
E:--5--5--5--5--5--3~--5--5--5--5--5--3~--5--5--5--5--5--3~-|




   Riff 1(Guit.1)
e:-----------5b(6)~-6--5--------------------5~--8--5---------------------5b(6|
B:-----5--6---------------6--6/8~--5--6--8------------6--8---------5--6------|
G:--7-------------------------------------------------------7~--7------------|
D:---------------------------------------------------------------------------|
A:---------------------------------------------------------------------------|
E:---------------------------------------------------------------------------|


                                                       


e:---6--6--8--10------6--5----------------------------|
B:----------------8~--------8--6~-------------8--10~--|
G:---------------------------------7--10--10----------|
D:----------------------------------------------------|
A:----------------------------------------------------|
E:----------------------------------------------------|




  Riff 1(Guit 2)
e:-------------17b(18)~--18--17-----------------------17~--20--17------------|
B:-----17--18--------------------18--20~--17--18--20---------------18--20----|
G:-19----------------------------------------------------------------------19|
D:---------------------------------------------------------------------------|
A:---------------------------------------------------------------------------|
E:---------------------------------------------------------------------------|





e:---------------17b(18)--18--18--20--22-------16--15------------------------|
B:-------17--18---------------------------20~----------20--18~----------20---|
G:~--19---------------------------------------------------------19--22-------|
D:---------------------------------------------------------------------------|
A:---------------------------------------------------------------------------|
E:---------------------------------------------------------------------------|


        Verse 1
e:----|------------------------------------|
B:22--|------------------------------------|
G:----|------------------------------------|
D:----|--7--3--5--------7--3---------------|
A:----|--5--1--3--3--2--5--1--5--3--5------|
E:----|-----------1--0--------3--1-----6--5|


      Bridge
e:------------------------------------------------------------------------|
B:------------------------------------------------------------------------|
G:------------------------------------------------------------------------|
D:------------------------------------------------------------------------|
A:----555555-111111-3333333--------------5555555-1111111--------------5---|
E:---------------------------1111--0000-------------------3333--1111-----6|


   Chorus
e:---------------------------------------------------------------------------|
B:---------------------------------------------------------------------------|
G:---------------------------------------------------------------------------|
D:---------------------------------------------------------------------------|
A:--7--7--7--7--7-----8--7--5-----8---------------------10----------------8--|
E:--5--5--5--5--5--3--------------6-6-6-6-6-6--6--8--10--8--8-8-8-8-8-8------|
                                 (___________)             (___________)



e:---------------------------------------------------------------------------|
B:---------------------------------------------------------------------------|
G:---------------------------------------------------------------------------|
D:---------------------------------------------------------------------------|
A:7--5--3---------------------------3----------------8--7--5--8--------------|
E:------1-1-1-1-1-1-1--1--1--3--5---1---1-1-1-1-1-1-----------6--6-6-6-6-6--6|
         (____________)                (___________)            (_________)



e:---------------------------------------------------------------|
B:---------------------------------------------------------------|
G:---------------------------------------------------------------|
D:---------------------------------------------------------------|
A:---------5-------------------------3-------------2--3--3--5--7-|
E:--8--10--3--3-3-3-3-3-3---6--5--3--1--1-1-1-1-1--0--1--1--3--5-|
             (___________)             (_________)




      Riff 2(Roland)
e:---------------------------------------------------------------------------|
B:---------------------------------------------------------------------------|
G:-------------------11--13----------------11--13------------------11--13----|
D:----14~-12p11--14----------14~-12p11-14----------14--14~--12p11----------14|
A:---------------------------------------------------------------------------|
E:---------------------------------------------------------------------------|


                               
                               

e:----------------------------|
B:--------------------Nx------|
G:--11b(13)rb11--11b(13)rb11--|
D:----------------------------|
A:----------------------------|
E:----------------------------|



    Riff 2 (Weiki)
e:---------------------------------------------------------------------------|
B:---------------------------------------------------------------------------|
G:----------------8--9---------------8--9---------------8--9-----8b(9)rb8--8b|
D:--11~--9p7--11--------11~-9p7--11--------11~-9h7--11--------9--------------|
A:---------------------------------------------------------------------------|
E:---------------------------------------------------------------------------|
               
               
               
e:------------|
B:---------nx-|
G:(10)rb8-----|
D:------------|
A:------------|
E:------------|




    Guitar Solo (Weiki)
e:---------------------------------------------------------------------------|
B:--15b(17)~rb15b(17)~rb15b(17)-(17)-15--(17)~--15--13h15--11h13------11-----|
G:----------------------------------------------------------------14------12h|
D:---------------------------------------------------------------------------|
A:---------------------------------------------------------------------------|
E:---------------------------------------------------------------------------|



e:---------------------------------------------------------------------------|
B:---------------------------------------------------------------------------|
G:14--10h12------12p10-------------------------------------------------------|
D:-----------14---------14--12--10--------------------------10--12--14-------|
A:----------------------------------13--12--10--10--12--13--------------10---|
E:---------------------------------------------------------------------------|


e:---------------------------------------------------------------------------|
B:-------------------------------------------------------11--13--15--15b(17)-|
G:-------------------10--12--14--------------10--12--14----------------------|
D:-------10--12--14--------------10--12--14----------------------------------|
A:12-14----------------------------------------------------------------------|
E:---------------------------------------------------------------------------|


e:------------------17(19)--17(19)--14---------------------------------------|
B:-15--17(20)~--14----------------------17(20)--20--18h20--16h18------16-----|
G:----------------------------------------------------------------19------17h|
D:---------------------------------------------------------------------------|
A:---------------------------------------------------------------------------|
E:---------------------------------------------------------------------------|



e:---------------------------------------------------------------------------|
B:---------------------------------------------------------------------------|
G:19--15h17------15----------------------------------------------------------|
D:-----------19------19--17--15----------------------15--17--19--------------|
A:-------------------------------17--16--14--16--17--------------14--16--17--|
E:---------------------------------------------------------------------------|



e:------------------------------------------------------------------------17-|
B:------------------------------------15--17--19--------------15--17--19-----|
G:------------14--16--18--14--16--18--------------14--16--18-----------------|
D:14--16--18-----------------------------------------------------------------|
A:---------------------------------------------------------------------------|
E:---------------------------------------------------------------------------|

                                                                  

e:-19--20--19--17--21(23)~--|------------------|-----------------|
B:--------------------------|--Repeat-Riff--2--|--Repeat-chorus--|
G:--------------------------|------------------|-----------------|
D:--------------------------|------------------|-----------------|
A:--------------------------|------------------|-----------------|
E:--------------------------|------------------|-----------------|


                                    


e:------------------------------|---|
B:-plus-------------------------|---|
G:------------------------------|END|
D:--------7--7--7--7--7--5--7---|---|
A:--------5--5--5--5--5--3--5---|---|
E:------------------------------|---|

Que te parecio? Calificalo con estrellas!!

Rating: 6.3/10 (36 votos)

Este fichero es trabajo propio de su transcriptor y representa su interpretación personal de la canción. El material contenido en esta página es para exclusivo uso privado, por lo que se prohibe su reproducción o retransmisión, así como su uso para fines comerciales.


Comentario de chili ozzy
temazoooooooo
Deja tus comentarios:
Letras de canciones | Musica Independiente