Enviado por:
pabloarroyo18

Mana, Bendita Tu Luz

e||-------------------------------------|
B||-----3-------3--------3----------3=--|
G||-------0==-----2==------0==---0-2--0-|
D||---0-------0--------2--------2-0-----|
A||----------------------------3--------|
E||--3-------2--------0-----------------|

e||-------------------------------------|
B||-----3-------3--------3==------3=----|
G||-------0==-----2==---0------0-2--0---|
D||---0-------0---------------2-0-------|
A||--------------------2-----3----------|
E||--3-------2--------0-----------------|

e||---------------------0---------------|
B||-----3==----3==----3--3------3=------|
G||----0------2------0-0-----0-2--0-----|
D||---0------0--------------2-0---------|   X2
A||-----------------2------3------------|
E||--3------2------0--------------------|
          Bendito el lugar y el motivo de estar ahi
          Bendita al coincidencia...
e||-----3==----2==----0==---------------|
B||----0------3------0---------3=-------|
G||---0------2------0-------0-2--0------|
D||------------------------2-0----------|   X2
A||-----------------------3-------------|
E||--3------2------0--------------------|
          Bendito el reloj q nos puso puntual ai
          Bendita sea tuu presencia

Mim      Re             Do
bendito Dios por encontrarnos
Re      Sol
en el camino
Mim            Re       Do
y de quitarme esta soledad 
          Re 
de mi destino    

CORO
           Sol Re
bendita la luz
            Lam         Do
bendita la luz de tu mirada
           Sol Re
bendita la luz
            Lam         Do             Sol
bendita la luz de tu mirada, desde el alma
Sol             Do
Benditos ojos que me esquivaban
 Lam           Do     Re      Sol
simulaban desden que me ignoraban
                Re 
y derrepente sostienes la mirada
 Lam                 Re
durom diri durom diriiii
Mom      Re            Do
bendito dios por encontrarnos
Re       Sol
en el camino
Mim            Re       Do
y de quitarme esta soledad
          Re
de mi destino
         Sol Re
bendita la luz
           Lam           Do
bendita la luz de tu mirada
         Sol Re
bendita la luz
           Lam           Do      Sol
bendita la luz de tu mirada ohhh
                       Re 
gloria divina esta suerte del buen tino
Fa                           Lam
de encontrarte justo ahi en medio del camino
Re                               Sol
gloria al cielo de encontrarte ahora
Mim            Re
llevarte mi soledad
      Si             Mim
y coincidir en mi destino
Re              Sol
en el mismo destino

           Sol Re
bendita la luz
            Lam        Do
bendita la luz de tu mirada
           Sol Re
bendita la luz
            Lam        Do
bendita la luz de tu mirada
           Sol      Re
Bendita mirada oh oh
          Lam            Do
bendita mirada desde el alma
    Sol Re Lam
tu mirada
Sol              Do
bendita bendita bendita mirada
Lam                Do
bendita tu alma y bendita tu luz
     Sol       Re
tu mirada oh oh
               Lam               do        Sol
oh oh te digo es tan bendita tu luz amor amor
                    Re
bendito el reloj y bendito el lugar
Lam                   Do          Re
benditos tus besos cerquita del mar
       Sol    RE
y tu mirada
      Lam
amor amor
                 Do
que bendita tu mirada
   Re      Sol
tu mirada amor

Espero que les guste y sirva...no se olviden de comentar y puntuar correctamente
Aviso: Este fichero es trabajo propio de su transcriptor y representa su interpretación personal de la canción. El material contenido en esta página es para exclusivo uso privado, por lo que se prohibe su reproducción o retransmisión, así como su uso para fines comerciales.
comentario del colaborador: si t gusto deja comentarios

Califica esta canción


Comentarios en Facebook