Enviado por: antonio021293
Agrandar Letra
Reducir Letra
Imprimir











Phil Collins, En Mi Corazon

--2-2--------------------2-2--------------4------------------------
------4-4--2-2---2-2-2p4-----4-4--2-2---2---4--2-2-4-2------2-2-2p4
---------------4----------------------4-----------------4-4--------
-------------------------------------------------------------------
-------------------------------------------------------------------
-------------------------------------------------------------------


-----------4----
-2-2-4-2-2---4-2
----------------
----------------
----------------
----------------


-2-2--7--2-0---2-2--9--0--
-------------------------4
--------------------------
--------------------------
--------------------------
--------------------------

ESta es un aprte de la cansion q dise ase: Como me apena verte llorar toma mi mano sientela yo te protejo de cualquier cosa no llores mas aki estoy en mi corazon tu viviras 

Pronto la mejorare y les dire las nuevas tablaturas espero q les gustela cansion ami si mi gusto 

UNA CREACION DE ANTONIO (YAKI)
Aviso: Este fichero es trabajo propio de su transcriptor y representa su interpretación personal de la canción. El material contenido en esta página es para exclusivo uso privado, por lo que se prohibe su reproducción o retransmisión, así como su uso para fines comerciales.

Califica esta canción


Comentarios en Facebook