Enviado por: pabloarroyo18
Agrandar Letra
Reducir Letra
Imprimir






Porta, Mi Rosa Negra

e||----0-3-2------2-3------3-5------5-7--|
B||-------------3--------3--------5------|
G||--------------------0======-----------|
D||--2======--0======-----------7======--|
A||--------------------------------------|
E||--------------------------------------|

e||------7-5------2-3------3-5------5-3--|
B||----5--------3--------3--------5------|
G||--------------------0======-----------|
D||--7======--0======-----------7======--|
A||--------------------------------------|
E||--------------------------------------|

NOTA:Todo eso se repite hasta el final de la
canción...No te olvides de puntuar correctamente
y dejar comentario por cualquier duda ok?
chau saludos...
Aviso: Este fichero es trabajo propio de su transcriptor y representa su interpretación personal de la canción. El material contenido en esta página es para exclusivo uso privado, por lo que se prohibe su reproducción o retransmisión, así como su uso para fines comerciales.

Califica esta canción


Comentarios en Facebook