Acordes y tablaturas para guitarra

Acordes y Tablaturas
Usuario: Password:

Buscar:
Acordes y Tablaturas >> Letra T >> Acordes de Tenacious D >> Classico
Tablatura de Classico, Tenacious D

Classico

Tenacious D






Part I: Bouree In E Minor by Bach 

E|-0--2--3--2--0----0--2-----------0----------------------------------------| 
B|---------------4--------0--2--4-----3--1--0-------------------------------| 
G|---------------------------------------------2--0-----0--2--4--2--0-------| 
D|---------------------------------------------------4-----------------4--2-| 
A|----------0----2-----------------------------0-----2--------2-------------| 
E|-3--2--0----------------3--2-----0--2--0--3--------------------------2--0-| 

Part II: Fur Elise by Beethoven 

E|-7-6-7-6-7-----------------------------7-6-7-6-7--------------------------| 
B|-----------7-10-8---------7-----7-8--------------7-10-8---------7---8-7---| 
G|------------------9-----9-----8-------------------------9-----9---------9-| 
D|----------------------9-------------------------------------9-------------| 
A|--------------------7-------------------------------------7---------------| 
E|----------------------------7--------7----------------------------7-------| 


E|---------7-7-8-7-------7-------------------------------------------------| 
B|----8-10---------10-10---10-8-8-10-8-7-----------------------------------| 
G|--9----------------------------------------------------------------------| 
D|---------------------------------------9-9-8-9-8-9-8---------------------| 
A|-------------------------------------------------------------------------| 
E|-----------------------------------------------------7-6-7-6-7-6---------| 


E|-------------------------------------------------------------------------| 
B|-12-11-12-11-12----------------------------------------------------------| 
G|----------------11-14-12-------------------------------------------------| 
D|--------------------------14~~~~~~~13------------------------------------| 
A|-------------------------------------------------------------------------| 
E|-------------------------------------------------------------------------| 

Part III: Eine Kleine Nachtmusik by Mozart 

E|------------------------------------------------------0------------------| 
B|-----------------7--5-2-5-2-5-2---2-------4-2-------2-----2-0-4-2--------| 
G|---------------8----------------3-----4-4-----4-4-3-----3---------4-4-3--| 
D|-9---9---9---9----------------------4------------------------------------| 
A|---9---9---9-------------------------------------------------------------| 
E|-------------------------------------------------------------------------| 


E|---0------------------------------------------2h4-2-0-0-0-0--------------| 
B|-2------------------------------4-4-2h4p2h4-4---------------4-4-4-4------| 
G|-----3-4-4-3h4p3h4--4-4-3h4p3h4------------------------------------------| 
D|-------------------------------------------------------------------------| 
A|-------------------------------------------------------------------------| 
E|-------------------------------------------------------------------------| 


E|-------------------------------------------------------------------------| 
B|-4-4-4-4-2-2-2-2-0-----0-------------------------------------------------| 
G|-------------------1-3--------------------------------6-8-10-11----10----| 
D|----------------------------------------------------9-----------11----11-| 
A|-------------------------------------------------------------------------| 
E|-------------------------------------------------------------------------| 


E|-------------------------------------------------------------------------| 
B|-------------------------------------------------------------------------| 
G|-10----11----10----10----11-11-11-11-10-10-10-10-10-10-10-11-11-11-------| 
D|----11----11----11----11-11-11-11-11-11-11-11-11-11-11-11-11-11-11-------| 
A|-------------------------------------------------------------------------| 
E|-------------------------------------------------------------------------|

Que te parecio? Calificalo con estrellas!!

Rating: 8.9/10 (279 votos)

Este fichero es trabajo propio de su transcriptor y representa su interpretación personal de la canción. El material contenido en esta página es para exclusivo uso privado, por lo que se prohibe su reproducción o retransmisión, así como su uso para fines comerciales.


Comentario de dilbernal
Classico
Deja tus comentarios:
Letras de canciones | Musica Independiente