Acordes y tablaturas para guitarra

Acordes y Tablaturas
Usuario: Password:

Buscar:
Acordes y Tablaturas >> Letra L >> Acordes de Los babasonicos >> Putita
Tablatura de Putita, Los babasonicos

Putita

Los babasonicos






****PUTITA BABASONICOS INFAME***

ESTA PARA MI ES LA VERSION DEFINITIVA, ESTA COMPLETA Y SUENA 
BIEN SIEMPRE Y CUANDO LE PONGAS EL RITMO ADECUADO Y RESPETES
LOS TIEMPOS EN LOS PUNTEOS, NO TE GUIES POR LA CANTIDAD DE 
NOTAS QUE PUSE EN LOS PUNTEOS PORQUE NO SON EXACTAS

ACORDES UTILIZADOS

       EADGBe
C9    (X32330)
Fmaj7 (X33210)           ==>NOTA: se toca con 2 guitarras, una toca los acordes y la segunda hace 
D7    (X30210)                    los punteos y los acordes que estan entre corchetes []
C     (X32010)
Am    (X02210)                    v: quiere decir que hay que estirar con la punta del dedo hacia
Em    (022000)                       arriba para lograr un efecto interesante!! :P
F7M   (8 8 10 9 10 8)
C7    (X32310)
C7M   (XX5557)
Am*   (X X 10 9 10 8)
Amadd9(X X 10 9 10 7)


INTRO:   con el ritmo adecuado suena perfecto

  C9..............Fmaj7........D7................C....................Fmaj7...........D7..........C.....

E--------------|-----------|---------|----------------------------|--------------|---------|-----------
B-----------8--|----8------|----8----|--------------------8-888---|-------(7)----|---8-----|-----------
G--------------|-5-----5---|-7v---7v-|-5--------5-7-5-7v----------|7v/5------(5)-|-7v--7V--|-5----5/15-
D--------------|-----------|---------|------5-7-------------------|--------------|---------|-----------
A--------------|-----------|---------|----------------------------|--------------|---------|-----------
E--------------|-----------|---------|----------------------------|--------------|---------|-----------

Am
Sin piedad dejas atras
     C                   Fmaj7                   Em
e----0-----------------------------12--------------------
B----1---------------------------------------------------
G----0--------------------------12-----14/12-12----------
D----2-----------------------14-----------------10-9-7---
A----3---------------------------------------------------
un sequito de vana idolatria
Am
sos tan espectacular
     C                   Fmaj7                  Em
e----------------------------------12--------------------
B--------------------------------------------------------
G-------------------------------12-----14/12-12----------
D----------------------------14-----------------10-9-7---
que no podes ser mia nada mas..........tenes que ser de todos

Fmaj7         Em
la piel los labios
         Am         C
y donde roza la bambula
Fmaj7     Em           Am..................C7M
seran mi prado, mi vergel

Fmaj7                                        C
e-----8-88-8--8--8----------7--5--3-----------------------------------
B---------------------------------------3-3/5--5----------------------3/5----5------
ya se  que el camino a la fama no significa nada, si no hay una mision
Fmaj7                                         C
e-----8-88-8--8--8----------7--5--3-----------------------------------------------------
B---------------------------------------3-3/5--5---------------------3/5----5------
¿cual es?  hacerte muy putita, probar tu galletita con toda devocion

     Fmaj7
     [F7M]
ya se,
ya se,
     C
     [F7M]
cual es
ya se  C7

Am                         c
derramas esa impresion de ser
                            Fmaj7         C
e----------------------------------12-------------------
B-------------------------------------------------------
G-------------------------------12-----14/12------------
D----------------------------14----------------10-9-7---
la accion que encarna la ternura
Am                       C
a tu alrededor no hay humildad,
                      Fmaj7           C
e----------------------------------12-------------------
B-------------------------------------------------------
G-------------------------------12-----14/12------------
D----------------------------14----------------10-9-7---
la venus es caricatura tenes que ser de todos

Fmaj7         Em
la piel los labios
         Am         C
y donde roza la bambula
Fmaj7     Em           Am..................C7M
seran mi prado, mi vergel

Am*                                         Amadd9 Am*
ya se  que el camino a la fama no significa nada, si no hay una mision
Am*                                         Amadd9 Am*
¿cual es?  hacerte muy putita, probar tu galletita con toda devocion

     Fmaj7
     [Am*]
ya se,
ya se,
     C
     [Am*]
cual es
ya se


e-----8-88-8--88--8--8-------7--5--3-------------------------------------------------    x2
B---------------------------------------3-3/5--5--------5--------------3/5----5------

     Fmaj7
     [Am*]
ya se,
ya se,
     C
     [Am*]
cual es
ya se.


CUALQUIER SUGERENCIA, CRITICA, AGRESION VERBAL Y/O FISICA O 
INVITACION A TOMAR ALGO SERA BIENVENIDA A 
[email protected]

Fuente original: LaCuerda
Colaborador original: leonardo saltamerenda [[email protected]]

Que te parecio? Calificalo con estrellas!!

Rating: 2.9/10 (14 votos)

Este fichero es trabajo propio de su transcriptor y representa su interpretación personal de la canción. El material contenido en esta página es para exclusivo uso privado, por lo que se prohibe su reproducción o retransmisión, así como su uso para fines comerciales.


Deja tus comentarios:

Letras de Los babasonicos
Letras de canciones | Musica Independiente