Enviado por:
themikel

Bersuit Vergarabat, Madre Hay Una Sola (intro)

Imprimir
Buenas.... este es el primer tema que posteo espero q les guste y no olviden de dejar sus comentarios

e|--10--8--7--5---------------------
b|---------------8--7--5------------
g|------------------------7---------
d|----------------------------------
a|----------------------------------
e|----------------------------------

e|--8--7--5-------------------------
b|-----------8--7--5----------------
g|--------------------7--5----------
d|----------------------------------
a|----------------------------------
e|----------------------------------

e|--7--5------------------------------
b|--------8--7--5---------------------
g|-----------------7--5--4------------
d|------------------------------------
a|------------------------------------
e|------------------------------------

e|--5---------------------------------
b|----8--7--5-------------------------
g|-------------7--5--4----------------
d|----------------------7-------------
a|------------------------------------
e|------------------------------------
Aviso: Este fichero es trabajo propio de su transcriptor y representa su interpretación personal de la canción. El material contenido en esta página es para exclusivo uso privado, por lo que se prohibe su reproducción o retransmisión, así como su uso para fines comerciales.
comentario del colaborador: eso es solo la intro despues viene el rasgueo que va con los siguientes acordes: (sol, re, mim, do) y para el estribillo: (sol, si 7, mim, do)

Califica esta canción


Comentarios en Facebook