Acordes y tablaturas para guitarra

Acordes y Tablaturas
Usuario: Password:

Buscar:
Acordes y Tablaturas >> Letra P >> Acordes de Panda >> Porque Todavia Podemos Decir Una Vez Mas
Acordes de Porque Todavia Podemos Decir Una Vez Mas, Panda

Porque Todavia Podemos Decir Una Vez Mas

Panda






a.b.bm.csosm.e.
PORQUE TODAVIA PODEMOS DECIR UNA VEZ MAS[PANDA]

Intro y Verso 1 y 2
E |-------------------------------------------------------------|
B |---------0---------------0---------------0-4-0--------0-2-0--|
G |-------4----4---4------4?---4---4------4------------4--------|
D |-----2--------2------2--------2------2------------2----------|
A |-----------------------------------0------------0------------|
E |---0---------------4-----------------------------------------|

PRE-coro
E |-------------------------------------- x 2
B |-----------5-----------------5--------
G |-------6-----6-----------6-----6------
D |-----6---6-----6-------7---7-----7----
A |---4-------------4--------------------
E |---------------------5-------------5--

E ----------------------------------------0---|
B -----------5-----------------4----------2---|
G -------6-----6-----------4-----4--------2---|
D -----6---6-----6-------4---4-----4------2---|
A ---4-------------4---2-------------2----0---|
E ----------------------------------------0---|

Verso 1

En verdad tu eras quien ponia el cielo azul
 tu eras el interruptor
interruptor de luz en la pared
te apagaste y regrese a la obscuridaaa...

en verdad no se ni donde estoy parado
  en verdad obscuro esta ya no veo nada
grito tu nombre en altavooooooooooz

precoro

se que hay cosas que aclarar
no se tienen que aclarar
no me importa sigue igual

coro
                   E
solo asienta por favor
                  C#m
la cabeza si los planes han cambiado
        Bm                A 
si los planes han cambiado

                E
solo niega sin razon con la cabeza si 
C#m
hoy se han quedado
   B
si hoy se han quedado
           x
pero por favor no me dejes dudando

solo x 2

verso 2

dices  tu que no te gusta que te ruege
luego me pediste que me arrodille a tus pies
ya sabias que lo haria
pues no existe cosa que me detenga para hacerte sentir bien

me dejaste escapar irresponsabilidad
siempre regresaba en el final

coro

A            E
  sonrie por favor
            C#m
sonrie niña yo me quedare
        Bm            A 
te juro yo me quedare
                 E
si quieres tu llorar
                   C#m
si tu lloras yo me ire al amanecer
      Bm
yo me ire al amanecer

          A 
pero por favor
               E
no me dejes dudando
               C#m
no me dejes dudando
              Bm
no me dejes dudando
          x
pero por favor
                     E
no me dejes dudando

----------------------------------------------------------------
   E         A       Bm     C#m     X
|--0--|  |--x--| |--x--| |--x--| |---------|
|--2--|  |--0--| |--2--| |--4--| |-0000000-|
|--2--|  |--2--| |--4--| |--6--| |---------|
|--1--|  |--2--| |--4--| |--6--| |---------|
|--0--|  |--2--| |--4--| |--5--| |---------|
|--0--|  |--0--| |--2--| |--4--| |---------|

Que te parecio? Calificalo con estrellas!!

Rating: 5.5/10 (69 votos)

Este fichero es trabajo propio de su transcriptor y representa su interpretación personal de la canción. El material contenido en esta página es para exclusivo uso privado, por lo que se prohibe su reproducción o retransmisión, así como su uso para fines comerciales.


Deja tus comentarios:

Letras de Panda
Letras de canciones | Musica Independiente