Acordes y tablaturas para guitarra

Acordes y Tablaturas
Usuario: Password:

Buscar:
Acordes y Tablaturas >> Letra A >> Acordes de Alesana >> Seduction
Tablatura de Seduction, Alesana

Seduction

Alesana






Seduction tablatura (Acustic) final.

1.
e|-1~------0h1-3-0h1--5-------5~----3~------0---3-1~--0~--|
B|----1-1~--------------6---6-6~----5~----2---2---3~--2~--|
G|-2~---2~----------------7-------------------------------|
D|--------------------------------------------------------|
A|--------------------------------------------------------|
D|--------------------------------------------------------|

2.
e|-1-----1-3-----3-5~--5h6-1-3-1-0~--1~--0~------|
B|-3---3---5---5---6~------------2~--3~--2~--1~--|
G|---2-------5-------------------------------2~--|
D|-----------------------------------------------|
A|-----------------------------------------------|
D|-----------------------------------------------|

3.
e|-1~------0h1-3-0h1-/5-------5~----3~------0---3-1~--0~--|
B|----1-1~--------------6---6-6~----5~----2---2---3~--2~--|
G|-2~---2~----------------7-------------------------------|
D|--------------------------------------------------------|
A|--------------------------------------------------------|
D|--------------------------------------------------------|

4.
e|-1-----1-3-----3-5~--5h6-1-3-1-0~--1~--0~------------------|
B|-3---3---5---5---6~------------2~--3~--2~--1~--3~----5~----|
G|---2-------5-------------------------------2~--3~----5~----|
D|-----------------------------------------------------------|
A|-----------------------------------------------------------|
D|-----------------------------------------------------------|

5.
e|--------------------0h1-0~--1h3-5---3-0-1~--1h3p1-|
B|-6----6-5-3~----3~------1~--------3-----3~--------|
G|--------5-3~----3~--------------2---0-------------|
D|---0~---------------------------------------------|
A|--------------------------------------------------|
D|--------------------------------------------------|

6.
e|---------------------------------------------------|
B|---------------------------------------------------|
G|---------2------2-2-0~------------2-2--7~----6~----|
D|-0~--2-3----2-3---3-2~----0~--2-3---3--------------|
A|---------------------------------------------------|
D|---------------------------------------------------|

7.
e|---------------------------------------------0~----|
B|---------------------------------------------2~----|
G|---------2------2-2-0~------------2-2--7~----2~----|
D|-0~--2-3----2-3---3-2~----0~--2-3---3--------2~----|
A|---------------------------------------------0~----|
D|---------------------------------------------------|

8.
e|-----------------------------------0h1-0~--1h3-5---3-0-1~--1h3p1-|
B|-3-----3-5-----5-6---6-5-3~----3~------1~--------3-----3~--------|
G|---3-------5-----------5-3~----3~--------------2---0-------------|
D|-----3-------5-----0---------------------------------------------|
A|-----------------------------------------------------------------|
D|-----------------------------------------------------------------|

9.
e|-----------------------------------0h1-0~--1h3-5---3-0-1~--1h3p1-|
B|-3-----3-5-----5-6---6-5-3~----3~------1~--------3-----3~--------|
G|---3-------5-----------5-3~----3~--------------2---0-------------|
D|-----3-------5-----0---------------------------------------------|
A|-----------------------------------------------------------------|
D|-----------------------------------------------------------------|

10.
e|--------------------------------------|
B|--3~----/5~--------\2~----------------|
G|--3~----/5~--------\2~----------------|
D|--3~----/5~--------\2~----------------|
A|--------------------------------------|
D|--------------------------------------|


/ = slide up
 = slide down
h = hammer on 
p = pull off
b = bend
r = release
x = muted string
t = tap (with finger or pick)
~ = vibrato

Que te parecio? Calificalo con estrellas!!

Rating: 7.9/10 (174 votos)

Este fichero es trabajo propio de su transcriptor y representa su interpretación personal de la canción. El material contenido en esta página es para exclusivo uso privado, por lo que se prohibe su reproducción o retransmisión, así como su uso para fines comerciales.


Comentario de xXShAdOwXx
Seduction Acoustic Tab by Alesana, www.Ultimate-Guitar.Com Ps es mi primera aver si quedo chida Ad1o0Zz.
Deja tus comentarios:
Letras de canciones | Musica Independiente