Enviado por: el puma gris 050
Agrandar Letra
Reducir Letra
Imprimir






Blues, Solos De Blues

bueno aca les dejo un buen blues!!!:

esta es un solo para guitarra electrica...si quieren denle distorcion...
E|------------------------------------|
B|-15bb--b15-13-----------------------|
G|--------------14`--12----------14`--|
D|-----------------------14?12*-------|
A|------------------------------------|
E|------------------------------------|



y este punteo es para acustica o electroacustica...
suena bastante bien... es mas o menos rapido....
denle un buen ritmo!!!
E|-------0-3b-0--------------|
B|-----3--------0------------|
G|-3/4------------4/3-0------|
D|----------------------4----|
A|---------------------------|
E|------------------------0--|


E|----------12-15b-12-----------------|
B|-------15-----------12--------------|
G|-15/16-----------------16/15-12-----|
D|--------------------------------14--|
A|------------------------------------|
E|------------------------------------|

estas pueden ser seguidas por la base comun.....
si no la conocen avisenme y la subo!!


b:levantar la cuerda.
/:deslizar la cuerda.
`:mantener o vibrar (a gusto).
*:bajar la cuerda.
Aviso: Este fichero es trabajo propio de su transcriptor y representa su interpretación personal de la canción. El material contenido en esta página es para exclusivo uso privado, por lo que se prohibe su reproducción o retransmisión, así como su uso para fines comerciales.

Califica esta canción


Comentarios en Facebook