Enviado por: dameddy
Agrandar Letra
Reducir Letra
Imprimir











Dropkick Murphys, I M Shipping Up To Boston

---------------------l---------------7---
--------------7-8-7--l-----------7-8-----
---9-7-9-7-9-------9-l-9-7-9-7-9---------
---------------------l--------------------
---------------------l--------------------
---------------------l--------------------


--------------------l-7-5---5------------
-------------7-8-7--l-----8---8-7-8-7-3-5
---9-7-9-7-9------9-l--------------------
--------------------l--------------------
--------------------l--------------------
--------------------l--------------------
Aviso: Este fichero es trabajo propio de su transcriptor y representa su interpretación personal de la canción. El material contenido en esta página es para exclusivo uso privado, por lo que se prohibe su reproducción o retransmisión, así como su uso para fines comerciales.

Califica esta canción


Comentarios en Facebook


Más canciones de Dropkick Murphys: