Acordes y tablaturas para guitarra

Acordes y Tablaturas
Usuario: Password:

Buscar:
Acordes y Tablaturas >> Letra S >> Acordes de Shocking Blue >> Never Marry A Railroad Man
Acordes de Never Marry A Railroad Man, Shocking Blue

Never Marry A Railroad Man

Shocking Blue






a.b.bb.c.d.dm.em.f.
Song: Never marry a railroadman


intro

guitar 1

e|---2/4/2---1------2/4/2---1/2/1------------------|
B|---2-------2------2-------2--------3-------------|
G|-----------------------------------3-------------|
D|-----------------------------------3-------------|
A|-------------------------------------------------|
E|-------------------------------------------------|

e|-------------------------------------------------|
B|-------------------------------------------------| 
G|------3-3-3-3-2--0-------------------------------|      
D|------3-3-3-3------3-----------------------------|
A|--1----------------------------------------------|
E|-------------------------------------------------|

F-Em-Dm  <- una vez en cada acorde


acordes: Dm C Dm Bb F Em Dm


Dm                                C
Have you ever been a broken heart once or twice
                         Dm
If it´s yes, how did you feel at his first lies
                          Bb     F 
If it´s no, you need this good advice
F-Em-Dm  <-una vez en cada acorde

 Coro:
          Dm                C
	Never marry a railroad man
                                Dm
	He loves you every now and then 
                                 Bb    F 
	His heart is at his mule train 
             F---Em--Dm   
	No! No! No!
          Dm                            C
	Don't fall in love with a railroad man
                                  Dm
	If you do, forget of me if you can
                              Bb      F
	YouÃ?Â?re better of without him 

Dm  A  Dm  A Dm - Bb - Dm/E - B - Dm.. - C - D]  
 en gtr 1]
  


guitar 2

e|---------------------------------------------------------------|
B|---------------------------------------------------------------|
G|---------------------------------------------------------------|
D|---------------------------------------------------------------|
A|----4-7-5-4-5-----5-8-6-5-6-----6-9-7-6-7-----7-8-8/10---------|
E|--5-------------6-------------7-------------8------------------|


[aqui son los cordes normales en la gtr 1]: Dm C Dm Bb F Em Dm

guitar 2
e|-----------------------------------3-5-3--------------------|
B|--5/6-6-6-6-6-6-6--5-3-2-3-5---2-5-------5-3--5-3-2-3-3-----|   
G|------------------------------------------------------------|   
D|------------------------------------------------------------|      
A|------------------------------------------------------------|    
E|------------------------------------------------------------|  

e|------------------------------------------------|
B|----3-3-3/6-6-6-3-------------------------------|
G|------------------5-----------------------------|
D|------------------------------------------------|
A|------------------------------------------------|
E|------------------------------------------------|
     
	
e|-------------------3---------------3-5-3--------------------|
B|--5/6-6-6-6-6-6-6----5-2-3-5---2-5-------5-3--5-3-2-3-3-----|   
G|------------------------------------------------------------|   
D|------------------------------------------------------------|      
A|------------------------------------------------------------|    
E|------------------------------------------------------------|						     

e|------------------------------------------------|
B|----3-3-3-3-3-3-3-3-3-3-------------------------|
G|----------------3-3-2-0-5-----------------------|
D|------------------------3-----------------------|
A|------------------------------------------------|
E|------------------------------------------------|
     


         Dm-Dm-------C		  <- una sola vez cada acorde 
		            
Have you  e-ver been restless in your bed
       C------C---------Dm
and so lonely that your eyes become wet
       Dm---Dm-------Bb    F     F-Em-Dm
Let me tell you that one thing 


       Dm-Dm-------C C------C---------Dm Dm---Dm-------Bb    F
Mmm mmm ....
F - Em -Dm
No! No! No!

Coro:
          Dm                C
	Never marry a railroad man
                                Dm
	He loves you every now and then 
                                 Bb    F 
	His heart is at his mule train 
             F---Em--Dm   
	No! No! No!
          Dm                            C
	Don't fall in love with a railroad man
                                  Dm
	If you do, forget of me if you can
                              Bb      F
	You are better of without him 

F - Em -Dm
No! No! No!
Dm      C           [fade]
No! No! No!
        Dm
No! No! No!
        C
No! No! No!
...

otro

guitar 2 

e|-----------------------------------3-5-3--------------------|
B|--5/6-6-6-6-6-6-6--5-3-2-3-5---2-5-------5-3--5-3-2-3-3-----|   
G|------------------------------------------------------------|   
D|------------------------------------------------------------|      
A|------------------------------------------------------------|    
E|------------------------------------------------------------|

Que te parecio? Calificalo con estrellas!!

Rating: 7.9/10 (112 votos)

Este fichero es trabajo propio de su transcriptor y representa su interpretación personal de la canción. El material contenido en esta página es para exclusivo uso privado, por lo que se prohibe su reproducción o retransmisión, así como su uso para fines comerciales.


Comentario de estruake
esta cancion esta muy padre!! a mi me encanta pendejadas a otro lado sale!!!
Deja tus comentarios:
Letras de canciones | Musica Independiente