Acordes y tablaturas para guitarra

Acordes y Tablaturas
Usuario: Password:

Buscar:
Acordes y Tablaturas >> Letra S >> Acordes de Ska-p >> Wild Spain
Bajo de Wild Spain, Ska-p

Wild Spain

Ska-p






G)1)------------------
D)2)------------------
A)3)------------------
E)4)------------------ La cuerda mas arriba que tenemos en
                  el bajo-guitarra,la mas cerca de la cara.

Intro:
1)---------------------------------------------
2)---------------------------------------------
3)-5-------8----6-------8-7--------------------
4)---5--6---------6--5-------------------------

1)---------------------------------------------
2)---------------------------------------------
3)-5-------8----6-------7----------------------
4)---5--6---------6--5-------------------------

1)---------------------------------------------
2)---------------------------------------------
3)-5-------8----6-------8-7--------------------
4)---5--6---------6--5-------------------------

1)---------------------------------------------
2)---------------------------------------------
3)-5-------8----6-------7----------------------
4)---5--6---------6--5-------------------------


Amigos extranjeros, van a alucinar...
1)---------------------------------------------
2)---------------------------------------------
3)-5---5-7-8-7-5----5-7-8----------------------
4)---5------------5----------------------------
van a degustar una extrema crueldad...
1)---------------------------------------------
2)---------------------------------------------
3)---8-6-------7-6-4---------------------------
4)-6-----6--5----------------------------------
Somos los mejores en atormentar...
1)---------------------------------------------
2)---------------------------------------------
3)-5---5-7-8-7-5----5-7-8-7-5---5-7-8-7--------
4)---5------------5-----------5----------------
somos los mejores en martirizar...
1)---------------------------------------------
2)---------------------------------------------
3)---5---5-------------------------------------
4)-3---3---------------------------------------
nuestras fiestas populares nunca las olvidarán.
1)---------------------------------------------
2)---------------------------------------------
3)---------------------------------------------
4)-6--5--3--5--1--3--5--6--5--6-5-6-5-3-1-0----


El toro de la Vega, el toro de San Juan...
1)---------------------------------------------
2)---------------------------------------------
3)-5---5-7-8-7-5----5-7-8----------------------
4)---5------------5----------------------------
el toro embolao o el toro enmaromao...
1)---------------------------------------------
2)---------------------------------------------
3)---8-6-------7-6-4---------------------------
4)-6-----6--5----------------------------------
La sangre y dolor es plato principal...
1)---------------------------------------------
2)---------------------------------------------
3)-5---5-7-8-7-5----5-7-8-7-5---5-7-8-7--------
4)---5------------5-----------5----------------
el sufrimiento ajeno es magistral...
1)---------------------------------------------
2)---------------------------------------------
3)---5---5-------------------------------------
4)-3---3---------------------------------------
goce con nosotros viendo agonizar a un animal.
1)---------------------------------------------
2)---------------------------------------------
3)-----5------3--------------------------------
4)-6-8---8--1---1--3--5--6-5--6-5-3-1-0--------


Ésta es la imagen que ofrecemos...
1)---------------------------------------------
2)-------------5-------------------------------
3)--------6--3---6-3---------------------------
4)-4-6--3------------6-------------------------
al resto de la humanidad...
1)---------------------------------------------
2)------------------3--------------------------
3)--------6--3-5-6----6------------------------
4)-4-6--3--------------------------------------
profesionales del tormento más cruel...
1)---------------------------------------------
2)-------------5-------------------------------
3)--------6--3---6-3---------------------------
4)-4-6--3------------6-------------------------
menos mal que en ésta tierra no todo el mundo es igual.
1)---------------------------------------------
2)---------------------------------------------
3)-----5--------3------------------------------
4)-6-7---6--4-6---4--3-------------------------

Oh Oh Oh, Bienvenidos a la España medieval...
1)--------------------------------------------------------
2)--------------------------------------------------------
3)-5-5-5--3--1--1-1-1-1-1-1-3--3-3-3-3-3-3-5--5-5-5-5-5-5-
4)--------------------------------------------------------
so welcome to the wild Spain...
1)--------------------------------------------------------
2)--------------------------------------------------------
3)--------------------------------------------------------
4)-3--3-3-3-3-3-3-----------------------------------------
El sadismo de una salvaje humillación.
1)--------------------------------------------------------
2)--------------------------------------------------------
3)1--1-1-1-1-1-1-3--3-3-3-3-3-3-5-------------------------
4)--------------------------------------------------------

Sangrientas tradiciones son aberraciones a la moral...
1)---------------------------------------------
2)---------------------------------------------
3)-5-----------------5---5---5---5-------------
4)-----------------3---3---3---3---------------
disfrazar de cultura la irracionalidad...
1)---------------------------------------------
2)---------------------------------------------
3)-----5------7---7---8---8---7---7------------
4)-6-8---6--5---5---6---6---5---5--------------
Sangrientas tradiciones son aberraciones a la moral...
1)---------------------------------------------
2)---------------------------------------------
3)-5---5-7-8-7-5---5-7-8-7----5---5---5---5----
4)---5-----------5----------3---3---3---3------
despreciando la vida y la muerte de un animal.
1)---------------------------------------------
2)---------------------------------------------
3)---8---8---7---7---5-------------------------
4)-6---6---5---5-------5-3-5-------------------

Vuestra tradición es nuestra maldición...
1)---------------------------------------------
2)---------------------------------------------
3)---------------------------------------------
4)-6-3-5-1-------------------------------------
no habrá descanso hasta la abolición.
1)---------------------------------------------
2)---------------------------------------------
3)---------------------------------------------
4)-3-6-5---------------------------------------

Ésta es la imagen que ofrecemos...(ESTA PARTE IGUAL QUE ANTES).

Oh Oh Oh, Bienvenidos a la España medieval...(ESTA PARTE IGUAL QUE ANTES).

Nuestro desprecio para el torturador...
1)---------------------------------------------
2)---------------------5-----------------------
3)-5---8-7---5---8-7-8-------------------------
4)---5---------5-------------------------------
No habrá descanso hasta la abolición.
1)---------------------------------------------
2)---------------------5-----------------------
3)-5---8-7---5---8-7-8-------------------------
4)---5---------5-------------------------------

¡¡YOU CAN HELP US TO STOP THIS!!

Que te parecio? Calificalo con estrellas!!

Rating: 4.0/10 (14 votos)

Este fichero es trabajo propio de su transcriptor y representa su interpretación personal de la canción. El material contenido en esta página es para exclusivo uso privado, por lo que se prohibe su reproducción o retransmisión, así como su uso para fines comerciales.


Deja tus comentarios:

Letras de Ska-p
Letras de canciones | Musica Independiente