Enviado por: D.A.C.R
Agrandar Letra
Reducir Letra
Imprimir


Otras Versiones de Sin Ti Seria Silencio:









Mago De Oz, Sin Ti Seria Silencio

bueno les dejo esta cancion de la ciudad dfe los arboles espero les guste 


--------------0-----------3h4--0---------------0-----------------------------------
----------------------------------------------------------------------------------
---------1----------------------------------1------------------------------------
------2------------2--------------------2-----------------------------------------
---2------------2---------------------2-------------------------------------
-------------------------------------------------------------------------------

Guitar 2 

-----------------------------------------------------------------------------------
----------------------------------------------------------------------------------
----------------------------------------------------------------------------------
-------------3p2------------------------------------------------------------------
---3//4----------------------------------------------------------------------
-------------------------------------------------------------------------------




------------------0------------------------------------------------------------------
----------------------------------------------------------------------------------
------------1----------------------------------------------------------------------
--------2----------------------------------------------------------------------
-----2-------------------------------------------------------------------
-------------------------------------------------------------------------------





Guitar 2 

-----------------------------------------------------------------------------------
----------------------------------------------------------------------------------
----------------------------------------------------------------------------------
------------------------------------------------------------------------
-------3-----6-----5-----2----1---3--------------------------------------
-------------------------------------------------------------------------------




------------------0-----------0-----------------5-------------------------------------
-----------------------------------------------5--------------------------------
------------1-----------1-------------------5-------------------------------------
--------2------------2--------------------5----------------------------------
-----2------------2---------------------5-------------------------------
---------------------------------------5--------------------------------------
Aviso: Este fichero es trabajo propio de su transcriptor y representa su interpretación personal de la canción. El material contenido en esta página es para exclusivo uso privado, por lo que se prohibe su reproducción o retransmisión, así como su uso para fines comerciales.

Califica esta canción


Comentarios en Facebook