Enviado por: angelsmetal
Agrandar Letra
Reducir Letra
Imprimir


Otras Versiones de Himno De La Alegria:




Beethoven, Himno De La Alegria

--0-0-1--3-3--1-0---------0-0---
-----------------3--1-1--3----3-3
---------------------------------
---------------------------------
---------------------------------

-0-0-1--3-3-1-0---------0------
---------------3-1-1---3-3--1-1
--------------------------------
--------------------------------
--------------------------------
--------------------------------

-----0------0-1-0-----0------1--0----------
-3--3--1-3--------1-3-------------3--1--3--
------------------------------------------0
-------------------------------------------
-------------------------------------------
-------------------------------------------

-0-0--1-3-3-1-0-----------0----------
-----------------3--1-1--3-----3--1-1
-------------------------------------
-------------------------------------
-------------------------------------
-------------------------------------

ESPERO QUE LES GUSTE ... ESTO ES SOLO EL CORO
Aviso: Este fichero es trabajo propio de su transcriptor y representa su interpretación personal de la canción. El material contenido en esta página es para exclusivo uso privado, por lo que se prohibe su reproducción o retransmisión, así como su uso para fines comerciales.

Califica esta canción


Comentarios en Facebook