Acordes y tablaturas para guitarra

Acordes y Tablaturas
Usuario: Password:

Buscar:
Acordes y Tablaturas >> Letra C >> Acordes de Chris Syler >> Dime
Tablatura de Dime, Chris Syler

Dime

Chris Syler






esta es ottra vercion a la q ya avia puesto =DD

(intro)
e|-------------0---0-----2-----0h2-----------------------------
B|-----2---3---3-------3-----3-----3--------0---------0-------0
G|-----2-2-2-2-2-2---2-----2---------2--------1-----2-------4--
D|---2-------------0----------------------2-------2-------2----
A|-0-------2---4-----------------------------------------------
E|--------------------------------------0-------2-------4------

e|-------------0-0---------------------------------------
B|-----2-0-0h2-----3---0h2---2h0-----0---------0-------0-
G|-----2-2-----------------------------1-----2-------4---
D|---2-----------0---0-----0-------2-------2-------2-----
A|-0-----------------------------------------------------
E|-------------------------------0-------2-------4-------

e|-------------0-4---4-3-2------2------------------------------
B|-----2-0-0h2---5---5-4-3----3-----3--------0---------0-----0-
G|-----2-2-------6-6-6-5-4--4-----4---4--------1-----2-----4---
D|---2-------------------------------------2-------2-----2-----
A|-0-----------------------------------------------------------
E|--------------------------------------0--------2-----4-------


(aqui empiza la cancion es lo mismo solo jueguen con los acordes que
se forma al arpejiar)


Que bella que estas
no lo tomes como un complemento
ahora dime
como as estado mujer
me han contado
que te han visto acompañada
de alguien que quizas valga la pena
pero no
mi vida no
te mientas por que
tu lo sabes
nadie te ama
como yo

(E D Db B Amaj7 -entre estos acordes
los cambios son rapidos-B Db D)x2


Coro
        D
dime si el
         Db             B
el te conoce tanto como yo
           Amaj7 B Db
eso lo dudo
            D
y dime si el
              Db
te hace derretirte
              B
como lo hago yo
                Amaj7 B Db
deja de mentirte
            D
y dime si el
              Db
te besa como yo
                      B
y te cuida cuando estas enferma
Amaj7 B    Db    D
mentira dime si el
             Db         B
te esta limpiando lagrimas
               Amaj7
que caen por mi
Amaj7
y yo e estado bien
aunque
              C#m
sepas que miento
       Cm         Bm
cuando te digo eso
E
pero que mas puedo decir
      Amaj7
y si te digo adios
                            C#m
me duele hay dios que me duele
         Cm               Bm
por que yo quiero recuperarte
E
y estar a tu lado de nuevo
Amaj7
pero no mi vida no lo escondas por que
tu lo sabes nadie te ama como yo

(VUELVE A EMPEZAR EL CORO COMO ARRIBA)

dime si el
el te conoce
tanto como yo
eso lo dudo
y dime si el
te hace derretirte
como lo hago yo
deja de mentirte
y dime si el te besa como yo
y te cuida cuando estas enferma
mentira dime si el
te esta limpiando lagrimas que caen por mi
que caen por mi
te esta limpiando lagrimas
que caen por mi

Que te parecio? Calificalo con estrellas!!

Rating: 4.9/10 (25 votos)

Este fichero es trabajo propio de su transcriptor y representa su interpretación personal de la canción. El material contenido en esta página es para exclusivo uso privado, por lo que se prohibe su reproducción o retransmisión, así como su uso para fines comerciales.


Comentario de Uribe10
=)
Deja tus comentarios:
Letras de canciones | Musica Independiente