Enviado por: alexcommin
Agrandar Letra
Reducir Letra
Imprimir











Alice Cooper, School Out (guitar Hero3)

bueno, esta cancion es un sountrack del juego
Guitar Hero III
bueno espero y les guste........


Intro
1.---------------------------
2.---------------------------
3.----------------------5/1--    Se repite 
4.---0-0-4-0-0-5-0-0-4-0-----
5.--------------------------- 
6.---------------------------  

Pre coro
1.-----------------------------
2.-----------------------------
3.-----------------------------
4.-----------------------------
5.---4-4-4-4-4-4-4--5--6-6-6-6-
6.---4-4-4-4-4-4-4--5--6-6-6-6- se repite

coro
1.--------6-------6---6-----6-----------
2.------5------5--------5------5--------
3.----4------4------------4-------4-----
4.--------------------------------------
5.--------------------------------------
6.--------------------------------------
Aviso: Este fichero es trabajo propio de su transcriptor y representa su interpretación personal de la canción. El material contenido en esta página es para exclusivo uso privado, por lo que se prohibe su reproducción o retransmisión, así como su uso para fines comerciales.
comentario del colaborador: No estoy seguro de los coros pero se le puedo entendre facilmente

Califica esta canción


Comentarios en Facebook