Acordes y tablaturas para guitarra

Acordes y Tablaturas
Usuario: Password:

Buscar:
Acordes y Tablaturas >> Letra S >> Acordes de System Of A Down >> Chop Suey!
Tablatura de Chop Suey!, System Of A Down

Chop Suey!

System Of A Down






PARA INFORMACION:[email protected]
Introdução: Tocar 4 vezes

D|---------------------------------------------------------------------------|  
A|---------------------------------------------------------------------------|
F|5--5-5-5-5-5-5-5-5/7--7-7-7-7-7-7-7-7/4--4-4-4-4-4-4-4-4/2--2-2-2-2-2-2-2-2|   
C|7--7-7-7-7-7-7-7-7/9--9-9-9-9-9-9-9-9/5--5-5-5-5-5-5-5-5/3--3-3-3-3-3-3-3-3| 
G|0--0-0-0-0-0-0-0-0-0--0-0-0-0-0-0-0-0-0--0-0-0-0-0-0-0-0-0--0-0-0-0-0-0-0-0|
C|---------------------------------------------------------------------------|

Terceira parte da introdução.
e|--------------------------------------------------------|
B|--------------------------------------------------------|
G|-3---3---3---5---5---5---2---2---2---0---0---0----------|Segunda Guitarra
D|---5---5---5---7---7---7---3---3---3---1---1---1--------|
A|--------------------------------------------------------|
E|--------------------------------------------------------|

G5                                             F#5
Wake up (Wake up) Grab a brush and put a little make-up
      
F#5                             G5
Hide the scars to fade away the shakeup
                                       (Hide to fade away the shakeup)
G5                                F#5
Why'd you leave the keys upon the table?
F#5                        G5
Here you go create another fable - You wanted to! 
G5                            F#5
Grab a brush and put a little makeup - You wanted to!
F#5                             G5
Hide the scars to fade away the shakeup - You wanted to!
G5                                F#5
Why'd you leave the keys upon the table? - You wanted to!

                   Gm   Cm  F7   Bb7
I don't think you trust in, my, self righteous:
   Gm  Cm   F7         Bb7 (deixa soar)        :  Guitarra 2 fazendo
Suicide I, cry, when angels deserve to         :       RIFF 2
DIE Whraaaaaaaaaaaaaaaghhhhh!                 :

[Repetir Verso1] 

                   Gm   Cm  F7   Bb7
I don't think you trust in, my, self righteous:                  
   Gm  Cm   F7         Bb7  
Suicide I, cry, when angels deserve to         :   Guitarra 2 fazendo
Gm  Cm  F7   Bb7
Die in my, self righteous                      :          RIFF 2
Gm       Cm  F7   Bb7
Suicide, I cry, when angels deserve to die     :

RIFF 3 2X

  G5              F#5
Father (Mother), father (Brother)              :
  A5                C5
Father (Fuck you), father (Ahhhh!!!)           :
  G5    F#5             A5        C5
Father into your hands, I commend my spirit    :
  G5    F#5             A5        C5
Father into your hands, why have you           : 

   G5        D#5             A#5       D#5 
Forsaken me  In your eyes forsaken me  In your thoughts
   G5        D#5              A#5    D#5       
Forsaken me  In your heart forsaken, ME oh
 G5   D#5 A#5 D#5    
Truss in  my  self righteous
    G5   D#5 A#5  D#5                   
Suicide I   cry  when angels deserve to
G5  D#5 A#5 D#5
Die in, my, self righteous
    G5   D#5   A#5    D#5           
Suicide why,  cry,   when angels deserve to
G5  
die

Que te parecio? Calificalo con estrellas!!

Rating: 7.4/10 (50 votos)

Este fichero es trabajo propio de su transcriptor y representa su interpretación personal de la canción. El material contenido en esta página es para exclusivo uso privado, por lo que se prohibe su reproducción o retransmisión, así como su uso para fines comerciales.


Deja tus comentarios:

Letras de System Of A Down
Letras de canciones | Musica Independiente