Enviado por: dameddy
Agrandar Letra
Reducir Letra
Imprimir


Otras Versiones de Today:









Smashing Pumpkins, Today

---11----13----11---15p11------
------11----11---11-------11---
-------------------------------x4
-------------------------------
-------------------------------
-------------------------------


---------------------   --------------------8-------
------8-----8h9p8----   ------8-------8h9------8----
--8-8---8-8-------8--   --8-8---8-8-8------------8--
---------------------   ----------------------------
---------------------   ----------------------------
---------------------   ----------------------------


-----------------
------5b7--------
-----------------
-----------------
-----------------
-----------------
Aviso: Este fichero es trabajo propio de su transcriptor y representa su interpretación personal de la canción. El material contenido en esta página es para exclusivo uso privado, por lo que se prohibe su reproducción o retransmisión, así como su uso para fines comerciales.

Califica esta canción


Comentarios en Facebook