Enviado por: Nancy_freack
Agrandar Letra
Reducir Letra
Imprimir






W.A.S.P, Sleeping In The Fire

La guitarra se afina un tono mas abajo...


intro....

e|------------0------------
B|------------------5------
G|--------4-----4------4---
D|----2------2-------------
A|-------------------------
E|-0-----------------------

(acorde Mim)

e|-------------0-----------
B|-----------------0-------
G|-------7-------------7---
D|----7----7--------------7
A|-5-----------------------
E|-------------------------

(acorde Re 6/9)


e|------------0------------
B|--------------0----------
G|------5---------5--------
D|---5-----5--------5------
A|-3-----------------------
E|-------------------------

(acorde Domaj7)
Aviso: Este fichero es trabajo propio de su transcriptor y representa su interpretación personal de la canción. El material contenido en esta página es para exclusivo uso privado, por lo que se prohibe su reproducción o retransmisión, así como su uso para fines comerciales.
comentario del colaborador: [email protected]

Califica esta canción


Comentarios en Facebook